turn away solo

(/) Slide Up  (\) Slide Down  (h) Hammer On  (p) Pull Off  (b) Bend (r) Release (v) Vibrato


E|---------------|---------------|---------------|--------------------------|--
B|------12--13v--|------13--12v--|--13--12--10v--|--7b9r7p5-----------------|--
G|--12-----------|--12-----------|---------------|-----------7--5--4--------|--
D|---------------|---------------|---------------|--------------------7--5--|--
A|---------------|---------------|---------------|--------------------------|--
E|---------------|---------------|---------------|--------------------------|--



E|---------------|---------------|-------------------------|--
B|------12--13v--|------13--12v--|--13--12--15v--15b17r15--|--
G|--12-----------|--12-----------|-------------------------|--
D|---------------|---------------|-------------------------|--
A|---------------|---------------|-------------------------|--
E|---------------|---------------|-------------------------|--



E|---------------|---------------|---------------|--14--15--14------------------|--
B|------12--13v--|------13--12v--|--13--12--15v--|--------------15--------------|--
G|--12-----------|--12-----------|---------------|------------------14--12--11--|--
D|---------------|---------------|---------------|------------------------------|--
A|---------------|---------------|---------------|------------------------------|--
E|---------------|---------------|---------------|------------------------------|--



E|-------|---------------|-----------------|---------------------|--
B|--13v--|------13--12v--|--13--12---------|--12------12--15b17--|--
G|-------|--12-----------|----------14b16--|------14-------------|--
D|-------|---------------|-----------------|---------------------|--
A|-------|---------------|-----------------|---------------------|--
E|-------|---------------|-----------------|---------------------|--
http://www.guitartabcreator.com
Guitar Tab Creator is intended to store guitar tab created through the tool. It currently does not support in-line text editing. Any text you place in here will be lost. If you need to comment on your tab, please use the "Tab Notes" section located below.