turn away middle and end solo

(/) Slide Up  (\) Slide Down  (h) Hammer On  (p) Pull Off  (b) Bend (r) Release (v) Vibrato


E|--------------|--------------|--
B|--7--7--7--7--|--5--7--7--7--|--
G|--9--8--9--8--|--6--9--9--8--|--
D|--9--9--9--9--|--7--9--9--9--|--
A|--------------|--------------|--
E|--------------|--------------|--



E|------------------------------|------------------------------|--
B|------------------------------|------------------------------|--
G|--13--13--11--11--13--11--11--|--9---9---9---13--13--11--11--|--
D|--14--14--13--13--14--13--13--|--11--11--11--14--14--13--13--|--
A|------------------------------|------------------------------|--
E|------------------------------|------------------------------|--



E|-----
B|--5--
G|--8--
D|--9--
A|-----
E|--0--



E|-----------------------------------------------|--
B|-----12----------7--------5v----------7--------|--
G|---------13---------8---------6----------8-----|--
D|-------------14--------9---------7/9--------9--|--
A|-----------------------------------------------|--
E|--0--------------------------------------------|--



E|-----------------------------------------------------|--
B|-----12----------7--------5v----------7--------7-----|--
G|---------13---------8---------6----------8--------9--|--
D|-------------14--------9---------7/9--------9--------|--
A|-----------------------------------------------------|--
E|--0--------------------------------------------------|--
http://www.guitartabcreator.com
Guitar Tab Creator is intended to store guitar tab created through the tool. It currently does not support in-line text editing. Any text you place in here will be lost. If you need to comment on your tab, please use the "Tab Notes" section located below.