Turn away done

Intro
E|--------------|-----------------|
B|--------------|-----------4-----|
G|-----9--4--6--|--2--6--6--4-----|
D|--2--9--4--6--|--2--6--6--4-----|
A|--2--7--2--4--|--0--4--4--2-----|
E|--0-----------|--------------2--| X4

Break
E|--------------------------------------------------------------------|
B|--------------------------------------------------------------------|
G|--9-----------9--------------9-----------9-----------9-----------9--|
D|--9--2--2--2--9--2--2--2--2--9--2--2--2--9--2--2--2--9--2--2--2--9--|
A|--7--2--2--2--7--2--2--2--2--7--2--2--2--7--2--2--2--7--2--2--2--7--|
E|-----0--0--0-----0--0--0--0-----0--0--0-----0--0--0-----0--0--0-----|

E|--------------------------------|
B|--------------------------------|
G|-----------9--------------------|
D|--2--2--2--9--2--2--2-----------|
A|--2--2--2--7--2--2--2-----------|
E|--0--0--0-----0--0--0--3--2--0--|

Verse 1
E|--------------------------------------------------------------------|
B|--------------------------------------------------------------------|
G|--9-----------9--------------9-----------9-----------9-----------9--|
D|--9--2--2--2--9--2--2--2--2--9--2--2--2--9--2--2--2--9--2--2--2--9--|
A|--7--2--2--2--7--2--2--2--2--7--2--2--2--7--2--2--2--7--2--2--2--7--|
E|-----0--0--0-----0--0--0--0-----0--0--0-----0--0--0-----0--0--0-----|

E|--------------------------------|-----|--------------|
B|--------------------------------|-----|--------------|
G|-----------9--------------------|--6--|--4-----------|
D|--2--2--2--9--2--2--2--2--2--2--|--6--|--4-----------|
A|--2--2--2--7--2--2--2--2--2--2--|--4--|--2-----------|
E|--0--0--0-----0--0--0--0--0--0--|-----|-----3--2--0--| X2

E|-----------------------------------------------------|
B|-----------------------------------------------------|
G|-----------9-----------9-----------9-----------------|
D|--2--2--2--9--2--2--2--9--2--2--2--9--2--2--2--------|
A|--2--2--2--7--2--2--2--7--2--2--2--7--2--2--2--------|
E|--0--0--0-----0--0--0-----0--0--0-----0--0--0--3--2--|

Pre Chorus 1
E|-----|-----|-----|-----|
B|-----|-----|-----|-----|
G|-----|-----|-----|-----|
D|--6--|--7--|--4--|--9--|
A|--6--|--7--|--4--|--9--|
E|--4--|--5--|--2--|--7--|

Chorus 1
E|--------------|-----------------|
B|--------------|-----------4-----|
G|-----9--4--6--|--2--6--6--4-----|
D|--2--9--4--6--|--2--6--6--4-----|
A|--2--7--2--4--|--0--4--4--2-----|
E|--0-----------|--------------2--| X4

Solo 1
E|--7p0--5p0--4p0--2p0----------------------------|
B|----------------------5p0--7p0--9p0--9h10p9h10--|
G|------------------------------------------------|
D|------------------------------------------------|
A|------------------------------------------------|
E|------------------------------------------------|

E|--7p0--5p0--4p0--2p0----------------------------------------------------|
B|----------------------5p0--7p0--9p0--7p0--9p0--10p0--12p0--14p0--15b17--|
G|------------------------------------------------------------------------|
D|------------------------------------------------------------------------|
A|------------------------------------------------------------------------|
E|------------------------------------------------------------------------|

Solo Backing
E|--------------------------------------------------------------------|
B|--------------------------------------------------------------------|
G|--9-----------9--------------9-----------9-----------9-----------9--|
D|--9--2--2--2--9--2--2--2--2--9--2--2--2--9--2--2--2--9--2--2--2--9--|
A|--7--2--2--2--7--2--2--2--2--7--2--2--2--7--2--2--2--7--2--2--2--7--|
E|-----0--0--0-----0--0--0--0-----0--0--0-----0--0--0-----0--0--0-----|

E|--------------------------------|
B|--------------------------------|
G|-----------9--------------------|
D|--2--2--2--9--2--2--2-----------|
A|--2--2--2--7--2--2--2-----------|
E|--0--0--0-----0--0--0--3--2--0--|

Verse 2
E|--------------------------------------------------------------------|
B|--------------------------------------------------------------------|
G|--9-----------9--------------9-----------9-----------9-----------9--|
D|--9--2--2--2--9--2--2--2--2--9--2--2--2--9--2--2--2--9--2--2--2--9--|
A|--7--2--2--2--7--2--2--2--2--7--2--2--2--7--2--2--2--7--2--2--2--7--|
E|-----0--0--0-----0--0--0--0-----0--0--0-----0--0--0-----0--0--0-----|

E|--------------------------------|-----|--------------|
B|--------------------------------|-----|--------------|
G|-----------9--------------------|--6--|--4-----------|
D|--2--2--2--9--2--2--2--2--2--2--|--6--|--4-----------|
A|--2--2--2--7--2--2--2--2--2--2--|--4--|--2-----------|
E|--0--0--0-----0--0--0--0--0--0--|-----|-----3--2--0--| X2

E|-----------------------------------------------------|
B|-----------------------------------------------------|
G|-----------9-----------9-----------9-----------------|
D|--2--2--2--9--2--2--2--9--2--2--2--9--2--2--2--------|
A|--2--2--2--7--2--2--2--7--2--2--2--7--2--2--2--------|
E|--0--0--0-----0--0--0-----0--0--0-----0--0--0--3--2--|

Pre Chorus 2
E|-----|-----|-----|-----|
B|-----|-----|-----|-----|
G|-----|-----|-----|-----|
D|--6--|--7--|--4--|--9--|
A|--6--|--7--|--4--|--9--|
E|--4--|--5--|--2--|--7--|

Chorus 2
E|--------------|-----------------|
B|--------------|-----------4-----|
G|-----9--4--6--|--2--6--6--4-----|
D|--2--9--4--6--|--2--6--6--4-----|
A|--2--7--2--4--|--0--4--4--2-----|
E|--0-----------|--------------2--| X4

Interlude
E|--------|-----|-----|-----|-----|-----|-----|-----|-----|-----|-----|-----|
B|--------|-----|-----|-----|-----|-----|-----|-----|-----|-----|-----|-----|
G|-----6--|-----|--4--|-----|--6--|-----|--4--|-----|--6--|-----|--4--|--4--|
D|-----6--|--7--|--4--|--4--|--6--|--7--|--4--|--4--|--6--|--7--|--4--|--4--|
A|-----4--|--7--|--2--|--4--|--4--|--7--|--2--|--4--|--4--|--7--|--2--|--2--|
E|--0-----|--5--|-----|--2--|-----|--5--|-----|--2--|-----|--5--|-----|-----|

Solo
E|---------------|---------------|---------------|--------------------------|
B|------12--13v--|------13--12v--|--13--12--10v--|--7b9r7p5-----------------|
G|--12-----------|--12-----------|---------------|-----------7--5--4--------|
D|---------------|---------------|---------------|--------------------7--5--|
A|---------------|---------------|---------------|--------------------------|
E|---------------|---------------|---------------|--------------------------|

E|---------------|---------------|-------------------------|
B|------12--13v--|------13--12v--|--13--12--15v--15b17r15--|
G|--12-----------|--12-----------|-------------------------|
D|---------------|---------------|-------------------------|
A|---------------|---------------|-------------------------|
E|---------------|---------------|-------------------------|

E|---------------|---------------|---------------|--14--15--14------------------|
B|------12--13v--|------13--12v--|--13--12--15v--|--------------15--------------|
G|--12-----------|--12-----------|---------------|------------------14--12--11--|
D|---------------|---------------|---------------|------------------------------|
A|---------------|---------------|---------------|------------------------------|
E|---------------|---------------|---------------|------------------------------|

E|-------|---------------|-----------------|---------------------|
B|--13v--|------13--12v--|--13--12---------|--12------12--15b17--|
G|-------|--12-----------|----------14b16--|------14-------------|
D|-------|---------------|-----------------|---------------------|
A|-------|---------------|-----------------|---------------------|
E|-------|---------------|-----------------|---------------------|

Solo backing
E|-----------|-----------|-------------------------------|
B|-----------|-----------|-----8--8--7--8----8--7--------|
G|--5--------|-----------|--7--7--7--7--7----7--7--------|
D|--5--4--5--|--5--4--5--|--7----------------------4--5--|
A|--3--------|--5--------|--5----------------------------|
E|-----------|--3--------|-------------------------------| X3

E|-----------|-----------|-----------|-----|
B|-----------|-----------|-----------|-----|
G|--5--------|-----------|--4--------|-----|
D|--5--4--5--|--5--4--5--|--4--------|--2--|
A|--3--------|--5--------|--2--------|--2--|
E|-----------|--3--------|-----3--2--|--0--|

Middle section guitar 1
E|--------------|--------------|
B|--7--7--7--7--|--5--7--7--7--|
G|--9--8--9--8--|--6--9--9--8--|
D|--9--9--9--9--|--7--9--9--9--|
A|--------------|--------------|
E|--------------|--------------| X4

Middle section guitar 2 (Carries on throughout last chorus)
E|------------------------------|------------------------------|
B|------------------------------|------------------------------|
G|--13--13--11--11--13--11--11--|--9---9---9---13--13--11--11--|
D|--14--14--13--13--14--13--13--|--11--11--11--14--14--13--13--|
A|------------------------------|------------------------------|
E|------------------------------|------------------------------| X8

Chorus 3
E|--------------|-----------------|
B|--------------|-----------4-----|
G|-----9--4--6--|--2--6--6--4-----|
D|--2--9--4--6--|--2--6--6--4-----|
A|--2--7--2--4--|--0--4--4--2-----|
E|--0-----------|--------------2--| X4

Outro Solo (Backing is Chorus ending on E)
E|-----------------------------------------------|
B|-----12----------7--------5v----------7--------|
G|---------13---------8---------6----------8-----|
D|-------------14--------9---------7/9--------9--|
A|-----------------------------------------------|
E|--0--------------------------------------------| X3

E|-----------------------------------------------------|
B|-----12----------7--------5v----------7--------7-----|
G|---------13---------8---------6----------8--------9--|
D|-------------14--------9---------7/9--------9--------|
A|-----------------------------------------------------|
E|--0--------------------------------------------------|
Guitar Tab Creator is intended to store guitar tab created through the tool. It currently does not support in-line text editing. Any text you place in here will be lost. If you need to comment on your tab, please use the "Tab Notes" section located below.