turn away bits

(/) Slide Up  (\) Slide Down  (h) Hammer On  (p) Pull Off  (b) Bend (r) Release (v) Vibrato


E|--------------|-----------------|--
B|--------------|-----------4-----|--
G|-----9--4--6--|--2--6--6--4-----|--
D|--2--9--4--6--|--2--6--6--4-----|--
A|--2--7--2--4--|--0--4--4--2-----|--
E|--0-----------|--------------2--|--



E|--------------------------------------------------------------------|--
B|-----------------------------------------9--------------------------|--
G|--9-----------9--------------9--9--------9-----------9-----------9--|--
D|--9--2--2--2--9--2--2--2--2--9--2--2--2--9--2--2--2--9--2--2--2--9--|--
A|--7--2--2--2--7--2--2--2--2--7--2--2--2--7--2--2--2--7--2--2--2--7--|--
E|-----0--0--0-----0--0--0--0-----0--0--0-----0--0--0-----0--0--0-----|--



E|-----------------------------|--
B|-----------------------------|--
G|-----------9-----------------|--
D|--2--2--2--9--2--2--2--------|--
A|--2--2--2--7--2--2--2--------|--
E|--0--0--0-----0--0--0--3--2--|--



E|-----|--------------|--
B|-----|--------------|--
G|--6--|--4-----------|--
D|--6--|--4-----------|--
A|--4--|--2-----------|--
E|-----|-----3--2--0--|--



E|-----|-----|-----|-----|--
B|-----|-----|-----|-----|--
G|-----|-----|-----|-----|--
D|--6--|--7--|--4--|--9--|--
A|--6--|--7--|--4--|--9--|--
E|--4--|--5--|--2--|--7--|--
http://www.guitartabcreator.com
Guitar Tab Creator is intended to store guitar tab created through the tool. It currently does not support in-line text editing. Any text you place in here will be lost. If you need to comment on your tab, please use the "Tab Notes" section located below.