tears solo and end

(/) Slide Up  (\) Slide Down  (h) Hammer On  (p) Pull Off  (b) Bend (r) Release (v) Vibrato


E|--------------|-------------------------|-------------------------|-----------------------------|--
B|--------------|--------9----------------|-------------------------|-----------------------------|--
G|--11b13--11v--|--9h11-----11--9--8------|--11--9v--8--------------|-----8--9------9--11b13--11--|--
D|--------------|---------------------9v--|-------------11v--9--7v--|--9--------11----------------|--
A|--------------|-------------------------|-------------------------|-----------------------------|--
E|--------------|-------------------------|-------------------------|-----------------------------|--



E|------|--
B|------|--
G|--9v--|--
D|------|--
A|------|--
E|------|--


E|-----|-----|--|-----|-----|--
B|-----|-----|--|-----|-----|--
G|--9--|-----|--|--6--|-----|--
D|--9--|--9--|--|--6--|--7--|--
A|--7--|--9--|--|--4--|--7--|--
E|-----|--7--|--|-----|--5--|--
http://www.guitartabcreator.com
Guitar Tab Creator is intended to store guitar tab created through the tool. It currently does not support in-line text editing. Any text you place in here will be lost. If you need to comment on your tab, please use the "Tab Notes" section located below.