tears most of song

(/) Slide Up  (\) Slide Down  (h) Hammer On  (p) Pull Off  (b) Bend (r) Release (v) Vibrato


E|--3--|--3--3--|--------------|--
B|--3--|--3--3--|--3--2--3--2--|--
G|--0--|--0--0--|--2--2--2--2--|--
D|--0--|--0--0--|--0--0--0--0--|--
A|--2--|--3--2--|--------------|--
E|--3--|--------|--------------|--



E|-----|-----|-----|-----|-----|-----|-----|-----|--
B|-----|-----|-----|-----|-----|-----|-----|-----|--
G|--4--|-----|--7--|--7--|--4--|-----|--2--|--2--|--
D|--4--|--5--|--7--|--7--|--4--|--5--|--2--|--2--|--
A|--2--|--5--|--5--|--5--|--2--|--5--|--0--|--0--|--
E|-----|--3--|-----|-----|-----|--3--|-----|-----|--



E|-----|-----|-----|--3--|--
B|--3--|-----|-----|--3--|--
G|--2--|--2--|--4--|--0--|--
D|--0--|--2--|--4--|--0--|--
A|-----|--0--|--2--|--2--|--
E|-----|-----|-----|--3--|--



E|-----------0--------|--------------------|--------------------|--------------------|--
B|--------3-----3-----|--------------------|-----------2--------|--------------------|--
G|-----2-----------2--|--------2--4--2-----|--------4-----4-----|-----------2--------|--
D|--0-----------------|-----2-----------2--|-----4-----------4--|--------5-----5-----|--
A|--------------------|--0-----------------|--2-----------------|-----5-----------5--|--
E|--------------------|--------------------|--------------------|--3-----------------|--



E|--------------|--3--|--3--3--|--
B|--3--2--3--2--|--3--|--3--3--|--
G|--2--2--2--2--|--0--|--0--0--|--
D|--0--0--0--0--|--0--|--0--0--|--
A|--------------|--2--|--3--2--|--
E|--------------|--3--|--------|--



E|-----------------|------------------|----------|--
B|-----------------|------------------|----------|--
G|--5--4--7--9--7--|--5--4--7--9--11--|--12--16--|--
D|-----------------|------------------|----------|--
A|--3--2--5--7--5--|--3--2--5--7--9---|--10--14--|--
E|-----------------|------------------|----------|--
http://www.guitartabcreator.com
Guitar Tab Creator is intended to store guitar tab created through the tool. It currently does not support in-line text editing. Any text you place in here will be lost. If you need to comment on your tab, please use the "Tab Notes" section located below.