tears done

Intro
E|--------------------------|--------------------------|--------------------------|-----|
B|--3--------3--------3-----|--2--------2--------2-----|--3--------3--------3-----|--2--|
G|-----2--------2--------2--|-----2--------2--------2--|-----2--------2--------2--|--2--|
D|--------0--------0--------|--------0--------0--------|--------0--------0--------|--0--|
A|--------------------------|--------------------------|--------------------------|-----|
E|--------------------------|--------------------------|--------------------------|-----|

E|--3--|--3--3--|--------------|--3--|--3--3--|
B|--3--|--3--3--|--3--2--3--2--|--3--|--3--3--|
G|--0--|--0--0--|--2--2--2--2--|--0--|--0--0--|
D|--0--|--0--0--|--0--0--0--0--|--0--|--0--0--|
A|--2--|--3--2--|--------------|--2--|--3--2--|
E|--3--|--------|--------------|--3--|--------|

Verse 1
E|--------------|--3--|--3--3--|--------|
B|--3--2--3--2--|--3--|--3--3--|--3--2--|
G|--2--2--2--2--|--0--|--0--0--|--2--2--|
D|--0--0--0--0--|--0--|--0--0--|--0--0--|
A|--------------|--2--|--3--2--|--------|
E|--------------|--3--|--------|--------| X2

Pre Chorus 1
E|-----|-----|-----|-----|-----|-----|-----|-----|-----|-----|
B|-----|-----|-----|-----|-----|-----|-----|-----|-----|-----|
G|--4--|-----|--7--|--7--|--4--|-----|--2--|--3--|--2--|--3--|
D|--4--|--5--|--7--|--7--|--4--|--5--|--2--|--2--|--2--|--2--|
A|--2--|--5--|--5--|--5--|--2--|--5--|--0--|--0--|--0--|--0--|
E|-----|--3--|-----|-----|-----|--3--|-----|-----|-----|-----|

Chorus 1
E|-----|-----|-----|--3--|
B|--3--|-----|-----|--3--|
G|--2--|--2--|--4--|--0--|
D|--0--|--2--|--4--|--0--|
A|-----|--0--|--2--|--2--|
E|-----|-----|-----|--3--| x4

Lead (Only played over second half of chorus)
E|-----------0--------|--------------------|--------------------|--------------------|
B|--------3-----3-----|--------------------|-----------2--------|--------------------|
G|-----2-----------2--|--------2--4--2-----|--------4-----4-----|-----------2--------|
D|--0-----------------|-----2-----------2--|-----4-----------4--|--------5-----5-----|
A|--------------------|--0-----------------|--2-----------------|-----5-----------5--|
E|--------------------|--------------------|--------------------|--3-----------------| X2

Verse 2
E|--------------|--3--|--3--3--|--------|
B|--3--2--3--2--|--3--|--3--3--|--3--2--|
G|--2--2--2--2--|--0--|--0--0--|--2--2--|
D|--0--0--0--0--|--0--|--0--0--|--0--0--|
A|--------------|--2--|--3--2--|--------|
E|--------------|--3--|--------|--------| X2

Pre Chorus 2
E|-----|-----|-----|-----|-----|-----|-----|-----|-----|-----|
B|-----|-----|-----|-----|-----|-----|-----|-----|-----|-----|
G|--4--|-----|--7--|--7--|--4--|-----|--2--|--3--|--2--|--3--|
D|--4--|--5--|--7--|--7--|--4--|--5--|--2--|--2--|--2--|--2--|
A|--2--|--5--|--5--|--5--|--2--|--5--|--0--|--0--|--0--|--0--|
E|-----|--3--|-----|-----|-----|--3--|-----|-----|-----|-----|

Chorus 2
E|-----|-----|-----|--3--|
B|--3--|-----|-----|--3--|
G|--2--|--2--|--4--|--0--|
D|--0--|--2--|--4--|--0--|
A|-----|--0--|--2--|--2--|
E|-----|-----|-----|--3--| x4

Lead (Only played over second half of chorus)
E|-----------0--------|--------------------|--------------------|--------------------|
B|--------3-----3-----|--------------------|-----------2--------|--------------------|
G|-----2-----------2--|--------2--4--2-----|--------4-----4-----|-----------2--------|
D|--0-----------------|-----2-----------2--|-----4-----------4--|--------5-----5-----|
A|--------------------|--0-----------------|--2-----------------|-----5-----------5--|
E|--------------------|--------------------|--------------------|--3-----------------| X2

Middle 8 (Backing guitar plays backing chords)
C B D C B D C B
E|-----------------|------------------|----------|
B|-----------------|------------------|----------|
G|--5--4--7--9--7--|--5--4--7--9--11--|--12--16--|
D|-----------------|------------------|----------|
A|--3--2--5--7--5--|--3--2--5--7--9---|--10--14--|
E|-----------------|------------------|----------|

Solo (Backing guitar plays backing chords)
E B C# A
E|--------------|-------------------------|-------------------------|-----------------------------|
B|--------------|--------9----------------|-------------------------|-----------------------------|
G|--11b13--11v--|--9h11-----11--9--8------|--11--9v--8--------------|-----8--9------9--11b13--11--|
D|--------------|---------------------9v--|-------------11v--9--7v--|--9--------11----------------|
A|--------------|-------------------------|-------------------------|-----------------------------|
E|--------------|-------------------------|-------------------------|-----------------------------|

E B C# A
E|--------------|-------------------------|-------------------------|-----------------------------|
B|--------------|--------9----------------|-------------------------|-----------------------------|
G|--11b13--11v--|--9h11-----11--9--8------|--11--9v--8--------------|-----8--9------9--11b13--11--|
D|--------------|---------------------9v--|-------------11v--9--7v--|--9--------11----------------|
A|--------------|-------------------------|-------------------------|-----------------------------|
E|--------------|-------------------------|-------------------------|-----------------------------|

E|------|
B|------|
G|--9v--|
D|------|
A|------|
E|------|

Chorus 3 (Key change)
E|-----|-----|-----|-----|
B|-----|-----|-----|-----|
G|--9--|-----|--6--|-----|
D|--9--|--9--|--6--|--7--|
A|--7--|--9--|--4--|--7--|
E|-----|--7--|-----|--5--| X4

Outro lead (Backing guitar plays backing chords)
E B C# A
E|-----------2--------|--------------------|--------------------|--------------------|
B|--------5-----5-----|-----------2--------|-----------4--------|--------------------|
G|-----4--------------|--------4-----4-----|--------6-----6-----|-----------4--------|
D|--2--------------4--|-----4-----------4--|-----6-----------6--|--------7-----7-----|
A|--------------------|--2-----------------|--4-----------------|-----7-----------7--|
E|--------------------|--------------------|--------------------|--5-----------------| X2

End
E|-----|
B|-----|
G|--9--|
D|--9--|
A|--7--|
E|-----|
Guitar Tab Creator is intended to store guitar tab created through the tool. It currently does not support in-line text editing. Any text you place in here will be lost. If you need to comment on your tab, please use the "Tab Notes" section located below.