sweet dreams solo

(/) Slide Up  (\) Slide Down  (h) Hammer On  (p) Pull Off  (b) Bend (r) Release (v) Vibrato


E|---------10--10------------|--------10------------------|----------3---------------|--
B|--10b12----------10b12--8--|------------10--------------|-------3-----3------------|--
G|---------------------------|--9b11----------9b11--9--7--|--4h5-----------5--4--4v--|--
D|---------------------------|----------------------------|--------------------------|--
A|---------------------------|----------------------------|--------------------------|--
E|---------------------------|----------------------------|--------------------------|--



E|-----------------|------------------10--10--10--10--10--|-----
B|-----------------|--------8--10/12------13--13--13--12--|-----
G|--------------7--|--8--9--------------------------------|-----
D|-------5h7/9-----|--------------------------------------|-----
A|--5h7------------|--------------------------------------|-----
E|-----------------|--------------------------------------|-----



E|---------15-----------------|----------------------15--17b19--19--19p15h17p15--|--
B|-------------15-------------|----------15--16--17------------------------------|--
G|--14b16----------14b16--12--|--14--16------------------------------------------|--
D|----------------------------|--------------------------------------------------|--
A|----------------------------|--------------------------------------------------|--
E|----------------------------|--------------------------------------------------|--



E|--------------------------|--------------------|----------------------------------------|--|--
B|----------15--------------|--------8-----------|--10b12--12p8--10v--10b12--10p8-----8v--|--|--
G|--14--16------16--14--12--|--8--9-----9--8--5--|---------------------------------9------|--|--
D|--------------------------|--------------------|----------------------------------------|--|--
A|--------------------------|--------------------|----------------------------------------|--|--
E|--------------------------|--------------------|----------------------------------------|--|--
http://www.guitartabcreator.com
Guitar Tab Creator is intended to store guitar tab created through the tool. It currently does not support in-line text editing. Any text you place in here will be lost. If you need to comment on your tab, please use the "Tab Notes" section located below.