sweet dreams intro

(/) Slide Up  (\) Slide Down  (h) Hammer On  (p) Pull Off  (b) Bend (r) Release (v) Vibrato


E|---------------|----------------------------|--
B|---------------|----------------------------|--
G|---------------|----------------------------|--
D|-------5h7p5v--|--7v--7v--5h7--7v--5-----5--|--
A|--5h7----------|----------------------7-----|--
E|---------------|----------------------------|--


E|-----------------------------|----------------------------|--------------------|--
B|-----------------------------|----------------------------|--------------------|--
G|--------------------4--7--7--|--------------------4--7h9--|--------------------|--
D|-------5--7--7v--5-----------|-------5--7--7v--5----------|--7v--5--7p5-----5--|--
A|--5h7------------------------|--5h7-----------------------|--------------7-----|--
E|-----------------------------|----------------------------|--------------------|--

http://www.guitartabcreator.com
Guitar Tab Creator is intended to store guitar tab created through the tool. It currently does not support in-line text editing. Any text you place in here will be lost. If you need to comment on your tab, please use the "Tab Notes" section located below.