sweet dreams done

Intro
G D/F# C Em D
E|--3--|--2--|--3--|-----2--|
B|--3--|--3--|--3--|-----3--|
G|--0--|--2--|--0--|-----2--|
D|--0--|--4--|--0--|--2--0--|
A|--2--|--5--|--3--|--2-----|
E|--3--|--2--|-----|--0-----|

Intro Lead
G D/F# C
E|-----------------------------|----------------------------|--------------------|
B|-----------------------------|----------------------------|--------------------|
G|--------------------4--7--7--|--------------------4--7h9--|--------------------|
D|-------5--7--7v--5-----------|-------5--7--7v--5----------|--7v--5--7p5-----5--|
A|--5h7------------------------|--5h7-----------------------|--------------7-----|
E|-----------------------------|----------------------------|--------------------|

Em D
E|---------------|----------------------------|
B|---------------|----------------------------|
G|---------------|----------------------------|
D|-------5h7p5v--|--7v--7v--5h7--7v--5-----5--|
A|--5h7----------|----------------------7-----|
E|---------------|----------------------------|

Verse 1
E|--3--|--3--|--2--|--3--|-----2--|
B|--3--|--3--|--3--|--3--|-----3--|
G|--0--|--0--|--2--|--0--|-----2--|
D|--0--|--0--|--4--|--0--|--2--0--|
A|--2--|--2--|--5--|--3--|--2-----|
E|--3--|--3--|--2--|-----|--0-----| X2

Chorus 1
E|--3--|--3--|--3--|--3--------| |-----|--2--|--3--|--3--------|-----|--2--|--2--|--2--|
B|--3--|--3--|--3--|--3--------| |-----|--3--|--3--|--3--------|-----|--3--|--3--|--3--|
G|--0--|--0--|--0--|--0--------| |-----|--2--|--0--|--0--------|-----|--0--|--2--|--2--|
D|--0--|--0--|--0--|--0--------| |--2--|--0--|--0--|--0--------|--2--|--0--|--0--|--0--|
A|--3--|--2--|--3--|--2--------| |--2--|-----|--3--|--2--------|--2--|--3--|-----|-----|
E|-----|--3--|-----|--3--3--2--| |--0--|-----|-----|--3--3--2--|--0--|-----|-----|-----|

Break
E|--3--|--3--|--3--|--3--|
B|--3--|--3--|--3--|--3--|
G|--0--|--0--|--0--|--0--|
D|--0--|--0--|--0--|--0--|
A|--2--|--2--|--2--|--2--|
E|--3--|--3--|--3--|--3--|

Verse 2
E|--3--|--3--|--2--|--3--|-----2--|
B|--3--|--3--|--3--|--3--|-----3--|
G|--0--|--0--|--2--|--0--|-----2--|
D|--0--|--0--|--4--|--0--|--2--0--|
A|--2--|--2--|--5--|--3--|--2-----|
E|--3--|--3--|--2--|-----|--0-----| X2

Chorus 2
E|--3--|--3--|--3--|--3--------| |-----|--2--|--3--|--3--------|-----|--2--|--2--|--2--|
B|--3--|--3--|--3--|--3--------| |-----|--3--|--3--|--3--------|-----|--3--|--3--|--3--|
G|--0--|--0--|--0--|--0--------| |-----|--2--|--0--|--0--------|-----|--0--|--2--|--2--|
D|--0--|--0--|--0--|--0--------| |--2--|--0--|--0--|--0--------|--2--|--0--|--0--|--0--|
A|--3--|--2--|--3--|--2--------| |--2--|-----|--3--|--2--------|--2--|--3--|-----|-----|
E|-----|--3--|-----|--3--3--2--| |--0--|-----|-----|--3--3--2--|--0--|-----|-----|-----|

Solo
Em D C G
E|---------10--10------------|--------10------------------|----------3---------------|
B|--10b12----------10b12--8--|------------10--------------|-------3-----3------------|
G|---------------------------|--9b11----------9b11--9--7--|--4h5-----------5--4--4v--|
D|---------------------------|----------------------------|--------------------------|
A|---------------------------|----------------------------|--------------------------|
E|---------------------------|----------------------------|--------------------------|

Em D C G
E|-----------------|------------------10--10--10--10--10--|
B|-----------------|--------8--10/12------13--13--13--12--|
G|--------------7--|--8--9--------------------------------|
D|-------5h7/9-----|--------------------------------------|
A|--5h7------------|--------------------------------------|
E|-----------------|--------------------------------------|

Em D C G
E|---------15-----------------|----------------------15--17b19--19--19p15h17p15--|
B|-------------15-------------|----------15--16--17------------------------------|
G|--14b16----------14b16--12--|--14--16------------------------------------------|
D|----------------------------|--------------------------------------------------|
A|----------------------------|--------------------------------------------------|
E|----------------------------|--------------------------------------------------|

Em C D
E|--------------------------|--------------------|----------------------------------------|
B|----------15--------------|--------8-----------|--10b12--12p8--10v--10b12--10p8-----8v--|
G|--14--16------16--14--12--|--8--9-----9--8--5--|---------------------------------9------|
D|--------------------------|--------------------|----------------------------------------|
A|--------------------------|--------------------|----------------------------------------|
E|--------------------------|--------------------|----------------------------------------|

Chorus 3
E|--3--|--3--|--3--|--3--------| |-----|--2--|--3--|--3--------|-----|--2--|--2--|--2--|
B|--3--|--3--|--3--|--3--------| |-----|--3--|--3--|--3--------|-----|--3--|--3--|--3--|
G|--0--|--0--|--0--|--0--------| |-----|--2--|--0--|--0--------|-----|--0--|--2--|--2--|
D|--0--|--0--|--0--|--0--------| |--2--|--0--|--0--|--0--------|--2--|--0--|--0--|--0--|
A|--3--|--2--|--3--|--2--------| |--2--|-----|--3--|--2--------|--2--|--3--|-----|-----|
E|-----|--3--|-----|--3--3--2--| |--0--|-----|-----|--3--3--2--|--0--|-----|-----|-----|

Outro without lead
G D/F# C Em D
E|--3--|--2--|--3--|-----2--|
B|--3--|--3--|--3--|-----3--|
G|--0--|--2--|--0--|-----2--|
D|--0--|--4--|--0--|--2--0--|
A|--2--|--5--|--3--|--2-----|
E|--3--|--2--|-----|--0-----|

Outro Lead
G D/F# C
E|-----------------------------|----------------------------|--------------------|
B|-----------------------------|----------------------------|--------------------|
G|--------------------4--7--7--|--------------------4--7h9--|--------------------|
D|-------5--7--7v--5-----------|-------5--7--7v--5----------|--7v--5--7p5-----5--|
A|--5h7------------------------|--5h7-----------------------|--------------7-----|
E|-----------------------------|----------------------------|--------------------|

Em D
E|---------------|----------------------------|
B|---------------|----------------------------|
G|---------------|----------------------------|
D|-------5h7p5v--|--7v--7v--5h7--7v--5-----5--|
A|--5h7----------|----------------------7-----|
E|---------------|----------------------------|
Guitar Tab Creator is intended to store guitar tab created through the tool. It currently does not support in-line text editing. Any text you place in here will be lost. If you need to comment on your tab, please use the "Tab Notes" section located below.