STOP DROP SO FAR

Intro (Backing guitar plays chords as indicated) 
A F G
E|-----------------|-----------------|--------------|----------|
B|-----------------|-----------------|--------------|----------|
G|--5--5--7--5--7--|--9---10--9---7--|--5--7--5--7--|--2----4--|
D|--7--7--9--7--9--|--10--12--10--9--|--7--9--7--9--|--3----5--|
A|--0--0-----------|-----------------|--0-----------|----------|
E|-----------------|-----------------|--------------|----------|

A C G F
E|-----------------|-----------------|--------------|------------| |------|
B|-----------------|-----------------|--------------|------------| |------|
G|--5--5--7--5--7--|--9---10--9---7--|--5--7--5--7--|--9-----12--| |--10--|
D|--7--7--9--7--9--|--10--12--10--9--|--7--9--7--9--|--10----9---| |--10--|
A|--0--0-----------|-----------------|--0-----------|------------| |--8---|
E|-----------------|-----------------|--------------|------------| X2 |------|

Run
E|-----------------------|
B|-----------------------|
G|-----------------------|
D|--3--2-----------------|
A|--------5--3--2--------|
E|-----------------5--3--|

Harmony Run
E|-----------------------|
B|-----------------------|
G|--2--------------------|
D|-----5--3--2-----------|
A|--------------5--3--2--|
E|-----------------------|

Verse
E|----------------------------------------------|----------------------------------------------|
B|----------------------------------------------|----------------------------------------------|
G|--2----2--2--2--2----2--2----2--2--2--2----2--|--5----5--5--5--5----5--5----5--5--5--5----5--|
D|--2----2--2--2--2----2--2----2--2--2--2----2--|--5----5--5--5--5----5--5----5--5--5--5----5--|
A|--0----0--0--0--0----0--0----0--0--0--0----0--|--3----3--3--3--3----3--3----3--3--3--3----3--|
E|----------------------------------------------|----------------------------------------------|
* * * * * * * * * * * * * * * *
E|----------------------------------------------|----------------------------------|
B|----------------------------------------------|----------------------------------|
G|--7----7--7--7--7----7--7----7--7--7--7----7--|--7----7--7--7--7----7------------|
D|--7----7--7--7--7----7--7----7--7--7--7----7--|--7----7--7--7--7----7------------|
A|--4----4--4--4--4----4--4----4--4--4--4----4--|--5----5--5--5--5----5------------|
E|----------------------------------------------|--------------------------2----3--|
* * * * * * * * * * * *
E|----------------------------------------------|----------------------------------------------|
B|----------------------------------------------|----------------------------------------------|
G|--2----2--2--2--2----2--2----2--2--2--2----2--|--5----5--5--5--5----5--5----5--5--5--5----5--|
D|--2----2--2--2--2----2--2----2--2--2--2----2--|--5----5--5--5--5----5--5----5--5--5--5----5--|
A|--0----0--0--0--0----0--0----0--0--0--0----0--|--3----3--3--3--3----3--3----3--3--3--3----3--|
E|----------------------------------------------|----------------------------------------------|
* * * * * * * * * * * * * * * *
E|----------------------------------------------|-----------------------------------------------|
B|----------------------------------------------|-----------------------------------------------|
G|--7----7--7--7--7----7--7----7--7--7--7----7--|--7----7--7--7--7----7-------------------------|
D|--7----7--7--7--7----7--7----7--7--7--7----7--|--7----7--7--7--7----7-------------------------|
A|--4----4--4--4--4----4--4----4--4--4--4----5--|--5----5--5--5--5----5-------------2--3--0-----|
E|----------------------------------------------|--------------------------0--3--5-----------3--|
* * * * * * * * * * * *

Pre-Chorus
F G A G F C B/Ab G
E|-----|-----|------|-----|-----|-----|-----|-----|
B|--6--|--8--|--10--|--8--|--6--|-----|-----|-----|
G|--5--|--7--|--9---|--7--|--5--|--5--|-----|-----|
D|--3--|--5--|--7---|--5--|--3--|--5--|--6--|--5--|
A|-----|-----|------|-----|-----|--3--|--2--|--5--|
E|-----|-----|------|-----|-----|-----|-----|--3--|

Chorus (Backing guitar plays chords as indicated)
A F G
E|-----------------|-----------------|--------------|----------|
B|-----------------|-----------------|--------------|----------|
G|--5--5--7--5--7--|--9---10--9---7--|--5--7--5--7--|--2----4--|
D|--7--7--9--7--9--|--10--12--10--9--|--7--9--7--9--|--3----5--|
A|--0--0-----------|-----------------|--0-----------|----------|
E|-----------------|-----------------|--------------|----------|

A C G F
E|-----------------|-----------------|--------------|------------|------|
B|-----------------|-----------------|--------------|------------|------|
G|--5--5--7--5--7--|--9---10--9---7--|--5--7--5--7--|--9-----12--|--10--|
D|--7--7--9--7--9--|--10--12--10--9--|--7--9--7--9--|--10----9---|--10--|
A|--0--0-----------|-----------------|--0-----------|------------|--8---|
E|-----------------|-----------------|--------------|------------|------|

Run
E|-----------------------|
B|-----------------------|
G|-----------------------|
D|--3--2-----------------|
A|--------5--3--2--------|
E|-----------------5--3--|

Harmony Run
E|-----------------------|
B|-----------------------|
G|--2--------------------|
D|-----5--3--2-----------|
A|--------------5--3--2--|
E|-----------------------|

Verse 2
E|----------------------------------------------|----------------------------------------------|
B|----------------------------------------------|----------------------------------------------|
G|--2----2--2--2--2----2--2----2--2--2--2----2--|--5----5--5--5--5----5--5----5--5--5--5----5--|
D|--2----2--2--2--2----2--2----2--2--2--2----2--|--5----5--5--5--5----5--5----5--5--5--5----5--|
A|--0----0--0--0--0----0--0----0--0--0--0----0--|--3----3--3--3--3----3--3----3--3--3--3----3--|
E|----------------------------------------------|----------------------------------------------|
* * * * * * * * * * * * * * * *
E|----------------------------------------------|----------------------------------|
B|----------------------------------------------|----------------------------------|
G|--7----7--7--7--7----7--7----7--7--7--7----7--|--7----7--7--7--7----7------------|
D|--7----7--7--7--7----7--7----7--7--7--7----7--|--7----7--7--7--7----7------------|
A|--4----4--4--4--4----4--4----4--4--4--4----4--|--5----5--5--5--5----5------------|
E|----------------------------------------------|--------------------------2----3--|
* * * * * * * * * * * *
E|----------------------------------------------|----------------------------------------------|
B|----------------------------------------------|----------------------------------------------|
G|--2----2--2--2--2----2--2----2--2--2--2----2--|--5----5--5--5--5----5--5----5--5--5--5----5--|
D|--2----2--2--2--2----2--2----2--2--2--2----2--|--5----5--5--5--5----5--5----5--5--5--5----5--|
A|--0----0--0--0--0----0--0----0--0--0--0----0--|--3----3--3--3--3----3--3----3--3--3--3----3--|
E|----------------------------------------------|----------------------------------------------|
* * * * * * * * * * * * * * * *
E|----------------------------------------------|-----------------------------------------------|
B|----------------------------------------------|-----------------------------------------------|
G|--7----7--7--7--7----7--7----7--7--7--7----7--|--7----7--7--7--7----7-------------------------|
D|--7----7--7--7--7----7--7----7--7--7--7----7--|--7----7--7--7--7----7-------------------------|
A|--4----4--4--4--4----4--4----4--4--4--4----5--|--5----5--5--5--5----5-------------2--3--0-----|
E|----------------------------------------------|--------------------------0--3--5-----------3--|
* * * * * * * * * * * *

Pre-Chorus 2
F G A G F C B/Ab G
E|-----|-----|------|-----|-----|-----|-----|-----|
B|--6--|--8--|--10--|--8--|--6--|-----|-----|-----|
G|--5--|--7--|--9---|--7--|--5--|--5--|-----|-----|
D|--3--|--5--|--7---|--5--|--3--|--5--|--6--|--5--|
A|-----|-----|------|-----|-----|--3--|--2--|--5--|
E|-----|-----|------|-----|-----|-----|-----|--3--|

Chorus 2 (Backing guitar plays chords as indicated)
A F G
E|-----------------|-----------------|--------------|----------|
B|-----------------|-----------------|--------------|----------|
G|--5--5--7--5--7--|--9---10--9---7--|--5--7--5--7--|--2----4--|
D|--7--7--9--7--9--|--10--12--10--9--|--7--9--7--9--|--3----5--|
A|--0--0-----------|-----------------|--0-----------|----------|
E|-----------------|-----------------|--------------|----------|

A C G F
E|-----------------|-----------------|--------------|------------|------|
B|-----------------|-----------------|--------------|------------|------|
G|--5--5--7--5--7--|--9---10--9---7--|--5--7--5--7--|--9-----12--|--10--|
D|--7--7--9--7--9--|--10--12--10--9--|--7--9--7--9--|--10----9---|--10--|
A|--0--0-----------|-----------------|--0-----------|------------|--8---|
E|-----------------|-----------------|--------------|------------|------|

Run 2
E|--------------------------|
B|--------------------------|
G|--------------------------|
D|--------------------------|
A|--3--2--------2-----------|
E|--------5--3-----5--3--5--|

Harmony Run 2
E|--------------------------|
B|--------------------------|
G|--------------------------|
D|--------------------------|
A|--7--5--3-----5--3-----3--|
E|-----------7--------7-----|

Middle 8
F G A
E|----------|-----------------------------------------------|
B|----------|-----------------------------------------------|
G|----------|-----------------------------------------------|
D|--7----9--|--10\9--9--9--9\7--7--7--7\5--5--5--5\3--3--3--|
A|----------|-----------------------------------------------|
E|----------|-----------------------------------------------|

F G A
E|----------|---------------------------------------------------------|
B|----------|---------------------------------------------------------|
G|----------|---------------------------------------------------------|
D|--7----9--|--9/10--10--10--10/12--12--12--12/14--14--14--14/15--15--|
A|----------|---------------------------------------------------------|
E|----------|---------------------------------------------------------|

F G A
E|----------|-----------------------------------------------|
B|----------|-----------------------------------------------|
G|----------|-----------------------------------------------|
D|--7----9--|--10\9--9--9--9\7--7--7--7\5--5--5--5\3--3--3--|
A|----------|-----------------------------------------------|
E|----------|-----------------------------------------------|

F G A
E|----------|------|
B|----------|------|
G|----------|------|
D|--7----9--|--10--|
A|----------|------|
E|----------|------|

Solo
E|-----|--------------------------------------|--------------|--------17------19b21--19v--|--
B|-----|-----------------10--12--13--12--10v--|--15b17--15v--|--7/17------17--------------|--
G|--5--|-------------10-----------------------|--------------|----------------------------|--
D|--7--|---------10---------------------------|--------------|----------------------------|--
A|-----|--8--12-------------------------------|--------------|----------------------------|--
E|-----|--------------------------------------|--------------|----------------------------|--

E|--12p8-------------8--12p8-------------8--12p8------|
B|--------10-----10-----------10-----10-----------10--|
G|------------9-------------------9-------------------|
D|----------------------------------------------------|
A|----------------------------------------------------|
E|----------------------------------------------------|

E|--13p8--------------8--13p8--------------8--13--|
B|--------10------10-----------10------10---------|
G|------------10-------------------10-------------|
D|------------------------------------------------|
A|------------------------------------------------|
E|------------------------------------------------|
Guitar Tab Creator is intended to store guitar tab created through the tool. It currently does not support in-line text editing. Any text you place in here will be lost. If you need to comment on your tab, please use the "Tab Notes" section located below.