Stop, Drop, Rock 'N' Roll

(/) Slide Up  (\) Slide Down  (h) Hammer On  (p) Pull Off  (b) Bend (r) Release (v) Vibrato


E|-----------------|-----------------|--------------|----------|--
B|-----------------|-----------------|--------------|----------|--
G|--5--5--7--5--7--|--9---10--9---7--|--5--7--5--7--|--2----4--|--
D|--7--7--9--7--9--|--10--12--10--9--|--7--9--7--9--|--3----5--|--
A|--0--0-----------|-----------------|--0-----------|----------|--
E|-----------------|-----------------|--------------|----------|--



E|-----------------|-----------------|--------------|------------|--
B|-----------------|-----------------|--------------|------------|--
G|--5--5--7--5--7--|--9---10--9---7--|--5--7--5--7--|--9-----12--|--
D|--7--7--9--7--9--|--10--12--10--9--|--7--9--7--9--|--10----9---|--
A|--0--0-----------|-----------------|--0-----------|------------|--
E|-----------------|-----------------|--------------|------------|--



E|-----------------------|--
B|-----------------------|--
G|-----------------------|--
D|--3--2-----------------|--
A|--------5--3--2--------|--
E|-----------------5--3--|--



E|-----------------------|--
B|-----------------------|--
G|--2--------------------|--
D|-----5--3--2-----------|--
A|--------------5--3--2--|--
E|-----------------------|--
http://www.guitartabcreator.com
Guitar Tab Creator is intended to store guitar tab created through the tool. It currently does not support in-line text editing. Any text you place in here will be lost. If you need to comment on your tab, please use the "Tab Notes" section located below.