Stop Drop 1

Intro (Backing guitar plays chords as indicated) 
A F G
E|-----------------|-----------------|--------------|----------|
B|-----------------|-----------------|--------------|----------|
G|--5--5--7--5--7--|--9---10--9---7--|--5--7--5--7--|--2----4--|
D|--7--7--9--7--9--|--10--12--10--9--|--7--9--7--9--|--3----5--|
A|--0--0-----------|-----------------|--0-----------|----------|
E|-----------------|-----------------|--------------|----------|

A C G F
E|-----------------|-----------------|--------------|------------| |------|
B|-----------------|-----------------|--------------|------------| |------|
G|--5--5--7--5--7--|--9---10--9---7--|--5--7--5--7--|--9-----12--| |--10--|
D|--7--7--9--7--9--|--10--12--10--9--|--7--9--7--9--|--10----9---| |--10--|
A|--0--0-----------|-----------------|--0-----------|------------| |--8---|
E|-----------------|-----------------|--------------|------------| X2 |------|

Run
E|-----------------------|
B|-----------------------|
G|-----------------------|
D|--3--2-----------------|
A|--------5--3--2--------|
E|-----------------5--3--|

Harmony Run
E|-----------------------|
B|-----------------------|
G|--2--------------------|
D|-----5--3--2-----------|
A|--------------5--3--2--|
E|-----------------------|

Verse
E|----------------------------------------------|----------------------------------------------|
B|----------------------------------------------|----------------------------------------------|
G|--2----2--2--2--2----2--2----2--2--2--2----2--|--5----5--5--5--5----5--5----5--5--5--5----5--|
D|--2----2--2--2--2----2--2----2--2--2--2----2--|--5----5--5--5--5----5--5----5--5--5--5----5--|
A|--0----0--0--0--0----0--0----0--0--0--0----0--|--3----3--3--3--3----3--3----3--3--3--3----3--|
E|----------------------------------------------|----------------------------------------------|
* * * * * * * * * * * * * * * *
E|----------------------------------------------|----------------------------------|
B|----------------------------------------------|----------------------------------|
G|--7----7--7--7--7----7--7----7--7--7--7----7--|--7----7--7--7--7----7------------|
D|--7----7--7--7--7----7--7----7--7--7--7----7--|--7----7--7--7--7----7------------|
A|--4----4--4--4--4----4--4----4--4--4--4----4--|--5----5--5--5--5----5------------|
E|----------------------------------------------|--------------------------2----3--|
* * * * * * * * * * * *
E|----------------------------------------------|----------------------------------------------|
B|----------------------------------------------|----------------------------------------------|
G|--2----2--2--2--2----2--2----2--2--2--2----2--|--5----5--5--5--5----5--5----5--5--5--5----5--|
D|--2----2--2--2--2----2--2----2--2--2--2----2--|--5----5--5--5--5----5--5----5--5--5--5----5--|
A|--0----0--0--0--0----0--0----0--0--0--0----0--|--3----3--3--3--3----3--3----3--3--3--3----3--|
E|----------------------------------------------|----------------------------------------------|
* * * * * * * * * * * * * * * *
E|----------------------------------------------|-----------------------------------------------|
B|----------------------------------------------|-----------------------------------------------|
G|--7----7--7--7--7----7--7----7--7--7--7----7--|--7----7--7--7--7----7-------------------------|
D|--7----7--7--7--7----7--7----7--7--7--7----7--|--7----7--7--7--7----7-------------------------|
A|--4----4--4--4--4----4--4----4--4--4--4----5--|--5----5--5--5--5----5-------------2--3--0-----|
E|----------------------------------------------|--------------------------0--3--5-----------3--|
* * * * * * * * * * * *

Pre-Chorus

Guitar Tab Creator is intended to store guitar tab created through the tool. It currently does not support in-line text editing. Any text you place in here will be lost. If you need to comment on your tab, please use the "Tab Notes" section located below.