so long gone solo 2

(/) Slide Up  (\) Slide Down  (h) Hammer On  (p) Pull Off  (b) Bend (r) Release (v) Vibrato


E|--17p13-------------------13--|--17p13-------------------13--|--
B|---------15-----------15------|---------15-----------15------|--
G|-------------14v--14----------|-------------14v--14----------|--
D|------------------------------|------------------------------|--
A|------------------------------|------------------------------|--
E|------------------------------|------------------------------|--



E|--15p12-------------------12--|--15p12-------------------12--|--
B|---------13-----------13------|---------13-----------13------|--
G|-------------12v--12----------|-------------12v--12----------|--
D|------------------------------|------------------------------|--
A|------------------------------|------------------------------|--
E|------------------------------|------------------------------|--



E|--13p10-------------------10--|--13p10-------------------10--|--
B|---------11-----------11------|---------11-----------11------|--
G|-------------10v--10----------|-------------10v--10----------|--
D|------------------------------|------------------------------|--
A|------------------------------|------------------------------|--
E|------------------------------|------------------------------|--



E|--17p13------17p13------17p13------17p13------|--17p13------17p13------17p13------17b13------|--
B|---------15---------15---------15---------15--|---------15---------15---------15---------15--|--
G|----------------------------------------------|----------------------------------------------|--
D|----------------------------------------------|----------------------------------------------|--
A|----------------------------------------------|----------------------------------------------|--
E|----------------------------------------------|----------------------------------------------|--



E|--15p12------15p12------15p12------15p12------|--15p12------15p12------15p12------15p12------|--
B|---------13---------13---------13---------13--|---------13---------13---------13---------13--|--
G|----------------------------------------------|----------------------------------------------|--
D|----------------------------------------------|----------------------------------------------|--
A|----------------------------------------------|----------------------------------------------|--
E|----------------------------------------------|----------------------------------------------|--



E|--13p10------13p10------13p10------13p10------|--13p10------13p10------13p10------13p10------|--
B|---------11---------11---------11---------11--|---------11---------11---------11---------11--|--
G|----------------------------------------------|----------------------------------------------|--
D|----------------------------------------------|----------------------------------------------|--
A|----------------------------------------------|----------------------------------------------|--
E|----------------------------------------------|----------------------------------------------|--



E|--15p12------15p12------15p12------15p12------|---------|--
B|---------13---------13---------13---------13--|--13b15--|--
G|----------------------------------------------|---------|--
D|----------------------------------------------|---------|--
A|----------------------------------------------|---------|--
E|----------------------------------------------|---------|--



E|---------------------------13----------|--
B|--13h15--15---------13h15------15--13--|--
G|-------------12h14---------------------|--
D|---------------------------------------|--
A|---------------------------------------|--
E|---------------------------------------|--
http://www.guitartabcreator.com
Guitar Tab Creator is intended to store guitar tab created through the tool. It currently does not support in-line text editing. Any text you place in here will be lost. If you need to comment on your tab, please use the "Tab Notes" section located below.