so long gone middle section

(/) Slide Up  (\) Slide Down  (h) Hammer On  (p) Pull Off  (b) Bend (r) Release (v) Vibrato


E|-----|-----|-----|-----|-----|------|------|-----|--
B|-----|-----|-----|-----|-----|------|------|-----|--
G|--7--|--5--|--4--|--7--|--7--|--10--|--12--|--7--|--
D|-----|-----|-----|-----|-----|------|------|-----|--
A|-----|-----|-----|-----|-----|------|------|-----|--
E|-----|-----|-----|-----|-----|------|------|-----|--



E|--|--|--|--|-----|------|------|-----|--
B|--|--|--|--|-----|------|------|-----|--
G|--|--|--|--|--7--|--10--|--12--|--7--|--
D|--|--|--|--|--7--|--10--|--12--|--7--|--
A|--|--|--|--|--5--|--8---|--10--|--5--|--
E|--|--|--|--|-----|------|------|-----|--



E|-------------------------------------------------|--
B|-------------------------------------------------|--
G|--------7--------5--------4--------4--------4h5--|--
D|--0--0-----0--0-----0--0-----0--0-----0--0-------|--
A|-------------------------------------------------|--
E|-------------------------------------------------|--



E|------------------------------------------------|--
B|------------------------------------------------|--
G|--------7--------5--------4--------------10h12--|--
D|--0--0-----0--0-----0--0-----0--0--0--0---------|--
A|------------------------------------------------|--
E|------------------------------------------------|--



E|-----------------------------|--
B|-----------------------------|--
G|--------7--------5--------4--|--
D|--0--0-----0--0-----0--0-----|--
A|-----------------------------|--
E|-----------------------------|--



E|--1--|-----|-----|-----|--
B|--3--|--3--|-----|--3--|--
G|--2--|--0--|--3--|--0--|--
D|--0--|--0--|--3--|--0--|--
A|-----|--3--|--1--|--3--|--
E|-----|-----|-----|-----|--



E|--
B|--
G|--
D|--
A|--
E|--
http://www.guitartabcreator.com
Guitar Tab Creator is intended to store guitar tab created through the tool. It currently does not support in-line text editing. Any text you place in here will be lost. If you need to comment on your tab, please use the "Tab Notes" section located below.