So Long Gone first third

(/) Slide Up  (\) Slide Down  (h) Hammer On  (p) Pull Off  (b) Bend (r) Release (v) Vibrato


E|-----|-----------------|--
B|--3--|--3--------------|--
G|--2--|--2--------------|--
D|--0--|--0--------------|--
A|-----|-----------------|--
E|--0--|--0--0--3--0--3--|--



E|-----|-----|-----|-----------------|--
B|--3--|--3--|--3--|--3--------------|--
G|--2--|--0--|--0--|--2--------------|--
D|--0--|--0--|--0--|--0--------------|--
A|-----|--3--|--2--|-----------------|--
E|--0--|-----|-----|--0--0--3--0--3--|--



E|--------------|--------------|--------------|--------------------------|--
B|-----------3--|-----------3--|-----------3--|-----------3--------------|--
G|--------0-----|--------0-----|--------0-----|--------2-----------------|--
D|-----4--------|-----2--------|-----0--------|-----0--------------------|--
A|--5-----------|--3-----------|--2-----------|--------------------------|--
E|--------------|--------------|--------------|--0-----------0--3--0--3--|--



E|--------|-------|---------------|-----|-----
B|--------|-------|---------------|-----|-----
G|--7v--7\|--5--5\|--4--7\5--5\4--|--2--|-----
D|--------|-------|---------------|-----|-----
A|--------|-------|---------------|-----|-----
E|--------|-------|---------------|-----|--0--



E|-----|--
B|--3--|--
G|--2--|--
D|--0--|--
A|-----|--
E|--0--|--



E|------
B|------
G|------
D|--12--
A|------
E|------



E|------
B|------
G|------
D|--12--
A|------
E|------



E|-----------------------------------|--
B|-----------------------------------|--
G|---------------------------10------|--
D|--10h12--12---------10h12------12--|--
A|-------------10h12-----------------|--
E|-----------------------------------|--



E|-----|-----|-----|--------|--
B|-----|-----|-----|--------|--
G|--3--|--5--|--2--|--3--5--|--
D|--3--|--5--|--2--|--3--5--|--
A|--1--|--3--|--0--|--1--3--|--
E|-----|-----|-----|--------|--



E|-----|-----|-----|-----|--
B|-----|-----|-----|-----|--
G|--7--|--5--|--3--|--5--|--
D|--7--|--5--|--3--|--5--|--
A|--5--|--3--|--1--|--3--|--
E|-----|-----|-----|-----|--



E|--
B|--
G|--
D|--
A|--
E|--
http://www.guitartabcreator.com
Guitar Tab Creator is intended to store guitar tab created through the tool. It currently does not support in-line text editing. Any text you place in here will be lost. If you need to comment on your tab, please use the "Tab Notes" section located below.