so long gone first solo

(/) Slide Up  (\) Slide Down  (h) Hammer On  (p) Pull Off  (b) Bend (r) Release (v) Vibrato


E|-------|---------------|----------------|-----------------------|--------------------------------|--
B|-------|---------------|----------------|-----------------------|--------------------------------|--
G|-------|---------10h12b|--14r12--10h12--|--12h14p12-------------|------------------------10------|--
D|--12v--|--10h12--------|----------------|------------14h15--14--|--12--12---------10h12------12--|--
A|-------|---------------|----------------|-----------------------|----------10h12-----------------|--
E|-------|---------------|----------------|-----------------------|--------------------------------|--



E|-------------------------------------|------|--
B|-------------------------------------|------|--
G|---------------------------10--------|------|--
D|--10h12--12---------10h12------12p10h|--12--|--
A|-------------10h12-------------------|------|--
E|-------------------------------------|------|--



E|------|--
B|------|--
G|------|--
D|--12--|--
A|------|--
E|------|--



E|-----|-----|-----|-----|--
B|-----|-----|-----|-----|--
G|-----|--5--|--7--|--7--|--
D|--3--|--5--|--7--|--7--|--
A|--3--|--3--|--5--|--5--|--
E|--3--|-----|-----|-----|--
http://www.guitartabcreator.com
Guitar Tab Creator is intended to store guitar tab created through the tool. It currently does not support in-line text editing. Any text you place in here will be lost. If you need to comment on your tab, please use the "Tab Notes" section located below.