So long gone first half done

Intro Guitar One
E|-----|-----------------|
B|--3--|--3--------------|
G|--2--|--2--------------|
D|--0--|--0--------------|
A|-----|-----------------|
E|--0--|--0--0--3--0--3--| x2

Intro Guitar One
E|-----|-----|-----|-----------------|
B|--3--|--3--|--3--|--3--------------|
G|--2--|--0--|--0--|--2--------------|
D|--0--|--0--|--0--|--0--------------|
A|-----|--3--|--2--|-----------------|
E|--0--|-----|-----|--0--0--3--0--3--| x2

Intro Guitar Two
E|--------------|--------------|--------------|--------------------------|
B|-----------3--|-----------3--|-----------3--|-----------3--------------|
G|--------0-----|--------0-----|--------0-----|--------2-----------------|
D|-----4--------|-----2--------|-----0--------|-----0--------------------|
A|--5-----------|--3-----------|--2-----------|--------------------------|
E|--------------|--------------|--------------|--0-----------0--3--0--3--| x2

Intro Solo
E|--------|-------|---------------|-----|
B|--------|-------|---------------|-----|
G|--7v--7\|--5--5\|--4--7\5--5\4--|--2--|
D|--------|-------|---------------|-----|
A|--------|-------|---------------|-----|
E|--------|-------|---------------|-----|

Verse 1 (Guitar 2 comes in on last chord on build up)
E|-----|-----|-----|-----------------|-----|-----|-----|-----|
B|--3--|--3--|--3--|--3--------------|--3--|--3--|--3--|--3--|
G|--2--|--0--|--0--|--2--------------|--2--|--0--|--0--|--2--|
D|--0--|--0--|--0--|--0--------------|--0--|--0--|--0--|--0--|
A|-----|--3--|--2--|-----------------|-----|--3--|--2--|--0--|
E|--0--|-----|-----|--0--0--3--0--3--|--0--|-----|-----|--0--|

Chorus 1 Lead Guitar (No Vocals)
E|-----------------------------------| E-------|
B|-----------------------------------| B|------|
G|---------------------------10------| G|------|
D|--10h12--12---------10h12------12--| D|--12--|
A|-------------10h12-----------------| A|------|
E|-----------------------------------| x8 E|------|

Chorus 1 (No vocals)
E|-----|-----|-----|-----|
B|-----|-----|-----|-----|
G|--7--|--5--|--3--|--5--|
D|--7--|--5--|--3--|--5--|
A|--5--|--3--|--1--|--3--|
E|-----|-----|-----|-----| x2

Verse 2 Guitar 1
E|-----|-----|-----|-----------------|-----|-----|-----|-----|
B|--3--|--3--|--3--|--3--------------|--3--|--3--|--3--|--3--|
G|--2--|--0--|--0--|--2--------------|--2--|--0--|--0--|--2--|
D|--0--|--0--|--0--|--0--------------|--0--|--0--|--0--|--0--|
A|-----|--3--|--2--|-----------------|-----|--3--|--2--|--0--|
E|--0--|-----|-----|--0--0--3--0--3--|--0--|-----|-----|--0--|

Verse 2 Guitar 2
E|--------------|--------------|--------------|--------------------------|
B|-----------3--|-----------3--|-----------3--|-----------3--------------|
G|--------0-----|--------0-----|--------0-----|--------2-----------------|
D|-----4--------|-----2--------|-----0--------|-----0--------------------|
A|--5-----------|--3-----------|--2-----------|--------------------------|
E|--------------|--------------|--------------|--0-----------0--3--0--3--|

E|--------------|--------------|--------------|--------------|
B|-----------3--|-----------3--|-----------3--|-----------3--|
G|--------0-----|--------0-----|--------0-----|--------2-----|
D|-----4--------|-----2--------|-----0--------|-----0--------|
A|--5-----------|--3-----------|--2-----------|--------------|
E|--------------|--------------|--------------|--0-----------|

Pre chorus 1
E|-----|-----|-----|--------|
B|-----|-----|-----|--------|
G|--3--|--5--|--2--|--3--5--|
D|--3--|--5--|--2--|--3--5--|
A|--1--|--3--|--0--|--1--3--|
E|-----|-----|-----|--------|

Chorus 2 Lead Guitar
E|-----------------------------------| E-------|
B|-----------------------------------| B|------|
G|---------------------------10------| G|------|
D|--10h12--12---------10h12------12--| D|--12--|
A|-------------10h12-----------------| A|------|
E|-----------------------------------| x8 E|------|

Chorus 2 Rhythm Guitar
E|-----|-----|-----|-----| E|-----|
B|-----|-----|-----|-----| B|--3--|
G|--7--|--5--|--3--|--5--| G|--2--|
D|--7--|--5--|--3--|--5--| D|--0--|
A|--5--|--3--|--1--|--3--| A|--0--|
E|-----|-----|-----|-----| x2 E|--0--|

Solo 1
E|---------------|----------------|-----------------------|--------------------------------|
B|---------------|----------------|-----------------------|--------------------------------|
G|---------10h12b|--14r12--10h12--|--12h14p12-------------|------------------------10------|
D|--10h12--------|----------------|------------14h15--14--|--12--12---------10h12------12--|
A|---------------|----------------|-----------------------|----------10h12-----------------|
E|---------------|----------------|-----------------------|--------------------------------|

E|-------------------------------------|
B|-------------------------------------|
G|---------------------------10--------|
D|--10h12--12---------10h12------12p10h|
A|-------------10h12-------------------|
E|-------------------------------------|

E|-------------------|-----------------------|--------------------------------|
B|-------------------|-----------------------|--------------------------------|
G|--12b14r12--10h12--|--12h14p12-------------|------------------------10------|
D|-------------------|------------14h15--14--|--12--12---------10h12------12--|
A|-------------------|-----------------------|----------10h12-----------------|
E|-------------------|-----------------------|--------------------------------|

E|-------------------------------------|------|
B|-------------------------------------|------|
G|---------------------------10--------|------|
D|--10h12--12---------10h12------12p10h|--12--|
A|-------------10h12-------------------|------|
E|-------------------------------------|------|

Solo 1 Backing
E|-----|-----|-----|-----|
B|-----|-----|-----|-----|
G|-----|--5--|--7--|--7--|
D|--3--|--5--|--7--|--7--|
A|--3--|--3--|--5--|--5--|
E|--3--|-----|-----|-----| x2

Verse 3 Guitar 1
E|-----|-----|-----|-----------------|-----|-----|-----|-----|
B|--3--|--3--|--3--|--3--------------|--3--|--3--|--3--|--3--|
G|--2--|--0--|--0--|--2--------------|--2--|--0--|--0--|--2--|
D|--0--|--0--|--0--|--0--------------|--0--|--0--|--0--|--0--|
A|-----|--3--|--2--|-----------------|-----|--3--|--2--|--0--|
E|--0--|-----|-----|--0--0--3--0--3--|--0--|-----|-----|--0--|

Verse 3 Guitar 2
E|--------------|--------------|--------------|--------------------------|
B|-----------3--|-----------3--|-----------3--|-----------3--------------|
G|--------0-----|--------0-----|--------0-----|--------2-----------------|
D|-----4--------|-----2--------|-----0--------|-----0--------------------|
A|--5-----------|--3-----------|--2-----------|--------------------------|
E|--------------|--------------|--------------|--0-----------0--3--0--3--|

E|--------------|--------------|--------------|--------------|
B|-----------3--|-----------3--|-----------3--|-----------3--|
G|--------0-----|--------0-----|--------0-----|--------2-----|
D|-----4--------|-----2--------|-----0--------|-----0--------|
A|--5-----------|--3-----------|--2-----------|--------------|
E|--------------|--------------|--------------|--0-----------|

Pre chorus 2
E|-----|-----|-----|--------|
B|-----|-----|-----|--------|
G|--3--|--5--|--2--|--3--5--|
D|--3--|--5--|--2--|--3--5--|
A|--1--|--3--|--0--|--1--3--|
E|-----|-----|-----|--------|

Chorus 3 Lead Guitar
E|-----------------------------------| E------|
B|-----------------------------------| B|-----|
G|---------------------------10------| G|--7--|
D|--10h12--12---------10h12------12--| D|-----|
A|-------------10h12-----------------| A|-----|
E|-----------------------------------| x8 E|-----|

Chorus 3 Rhythm Guitar
E|-----|-----|-----|-----| E|-----|
B|-----|-----|-----|-----| B|--3--|
G|--7--|--5--|--3--|--5--| G|--2--|
D|--7--|--5--|--3--|--5--| D|--0--|
A|--5--|--3--|--1--|--3--| A|--0--|
E|-----|-----|-----|-----| x2 E|--0--|





Guitar Tab Creator is intended to store guitar tab created through the tool. It currently does not support in-line text editing. Any text you place in here will be lost. If you need to comment on your tab, please use the "Tab Notes" section located below.