SLJ Leads

(/) Slide Up  (\) Slide Down  (h) Hammer On  (p) Pull Off  (b) Bend (r) Release (v) Vibrato


E|--------------------|--------------------|--------------------|-----------------------|--
B|--------------------|--------------------|--------------------|-----------------------|--
G|--------------------|--------------2--4--|--------------------|-----------------------|--
D|--------------------|--0--0--3--4--------|--------------2--4--|--------------2--4--2--|--
A|--------------2--4--|--------------------|--0--0--3--4--------|--0--0--3--4-----------|--
E|--0--0--3--4--------|--------------------|--------------------|-----------------------|--



E|--------------------------|--------------------------|-----------------------|--
B|--------------------------|--------------------------|-----------------------|--
G|------------------16--18--|------------------14--16--|----------------9--11--|--
D|--14--14--17--18----------|--12--12--15--16----------|--7--7--10--11---------|--
A|--------------------------|--------------------------|-----------------------|--
E|--------------------------|--------------------------|-----------------------|--



E|--------------------------|--|--
B|--------------------------|--|--
G|----------------9--11--9--|--|--
D|--7--7--10--11------------|--|--
A|--------------------------|--|--
E|--------------------------|--|--



E|--12--12-------------|--10--10-------------|--5--5----------|--5--5----------|------|--
B|--12--12-------------|--10--10-------------|--5--5----------|--5--5----------|------|--
G|----------14--12h13--|----------12--10h11--|--------7--5h6--|--------7--5h6--|--12--|--
D|---------------------|---------------------|----------------|----------------|------|--
A|---------------------|---------------------|----------------|----------------|------|--
E|---------------------|---------------------|----------------|----------------|------|--
http://www.guitartabcreator.com
Guitar Tab Creator is intended to store guitar tab created through the tool. It currently does not support in-line text editing. Any text you place in here will be lost. If you need to comment on your tab, please use the "Tab Notes" section located below.