SLJ Done

Intro (Guitar 1)
E D A A
E|-------------------|-----------------|-----------------|-----------------|
B|-------------------|-----------------|-----------------|-----------------|
G|-------------------|-----------------|-----------------|-----------------|
D|--9--9--11--9--11--|--7--7--9--7--9--|-----------------|-----------------|
A|--7--7--7---7--7---|--5--5--5--5--5--|--7--7--9--7--9--|--7--9--7--9--7--|
E|-------------------|-----------------|--5--5--5--5--5--|--5--5--5--5--5--| X2

Intro (Guitar 2, Only on second time through)
E|-----|-----|-----|-----|
B|-----|-----|-----|-----|
G|-----|--7--|-----|-----|
D|--2--|--7--|--7--|--7--|
A|--2--|--5--|--7--|--7--|
E|--0--|-----|--5--|--5--|

Intro Solo
E|--------------------|--------------------|--------------------|-----------------------|
B|--------------------|--------------------|--------------------|-----------------------|
G|--------------------|--------------2--4--|--------------------|-----------------------|
D|--------------------|--0--0--3--4--------|--------------2--4--|--------------2--4--2--|
A|--------------2--4--|--------------------|--0--0--3--4--------|--0--0--3--4-----------|
E|--0--0--3--4--------|--------------------|--------------------|-----------------------| X2

Intro Solo Backing
E|-------------------|-----------------|-----------------|-----------------|
B|-------------------|-----------------|-----------------|-----------------|
G|-------------------|-----------------|-----------------|-----------------|
D|--9--9--11--9--11--|--7--7--9--7--9--|-----------------|-----------------|
A|--7--7--7---7--7---|--5--5--5--5--5--|--7--7--9--7--9--|--7--9--7--9--7--|
E|-------------------|-----------------|--5--5--5--5--5--|--5--5--5--5--5--| X2

Verse 1
E|-------------------|-----------------|-----------------|-----------------|
B|-------------------|-----------------|-----------------|-----------------|
G|-------------------|-----------------|-----------------|-----------------|
D|--9--9--11--9--11--|--7--7--9--7--9--|-----------------|-----------------|
A|--7--7--7---7--7---|--5--5--5--5--5--|--7--7--9--7--9--|--7--9--7--9--7--|
E|-------------------|-----------------|--5--5--5--5--5--|--5--5--5--5--5--| X4

Pre Chorus 1
E|--3--3--|--------------------------|
B|--3--3--|--------------------------|
G|--0--0--|-----2--2--2-----2--2--2--|
D|--0--0--|-----2--2--2-----2--2--2--|
A|--2--2--|-----0--0--0-----0--0--0--|
E|--3--2--|--3-----------3-----------| X3

E|--3--3--|--------|
B|--3--3--|--------|
G|--0--0--|--4--4--|
D|--0--0--|--4--4--|
A|--2--2--|--2--2--|
E|--3--2--|--------|

Chorus 1
E|-----------|----------------|--------------|-----|
B|-----------|----------------|--------------|-----|
G|--9--7--9--|----------------|--------------|-----|
D|--9--7--9--|----------------|--------------|--2--|
A|--7--7--7--|--9--11--9--11--|--7--9--7--9--|--2--|
E|-----------|--7--7---7--7---|--5--5--5--5--|--0--| X2

Solo One
E|--------------------|--------------------|--------------------|-----------------------|
B|--------------------|--------------------|--------------------|-----------------------|
G|--------------------|--------------2--4--|--------------------|-----------------------|
D|--------------------|--0--0--3--4--------|--------------2--4--|--------------2--4--2--|
A|--------------2--4--|--------------------|--0--0--3--4--------|--0--0--3--4-----------|
E|--0--0--3--4--------|--------------------|--------------------|-----------------------| X2

Solo One Backing
E|-------------------|-----------------|-----------------|-----------------|
B|-------------------|-----------------|-----------------|-----------------|
G|-------------------|-----------------|-----------------|-----------------|
D|--9--9--11--9--11--|--7--7--9--7--9--|-----------------|-----------------|
A|--7--7--7---7--7---|--5--5--5--5--5--|--7--7--9--7--9--|--7--9--7--9--7--|
E|-------------------|-----------------|--5--5--5--5--5--|--5--5--5--5--5--| X2

Verse 2
E|-------------------|-----------------|-----------------|-----------------|
B|-------------------|-----------------|-----------------|-----------------|
G|-------------------|-----------------|-----------------|-----------------|
D|--9--9--11--9--11--|--7--7--9--7--9--|-----------------|-----------------|
A|--7--7--7---7--7---|--5--5--5--5--5--|--7--7--9--7--9--|--7--9--7--9--7--|
E|-------------------|-----------------|--5--5--5--5--5--|--5--5--5--5--5--| X4

Pre Chorus 2
E|--3--3--|--------------------------|
B|--3--3--|--------------------------|
G|--0--0--|-----2--2--2-----2--2--2--|
D|--0--0--|-----2--2--2-----2--2--2--|
A|--2--2--|-----0--0--0-----0--0--0--|
E|--3--2--|--3-----------3-----------| X3

E|--3--3--|--------|
B|--3--3--|--------|
G|--0--0--|--4--4--|
D|--0--0--|--4--4--|
A|--2--2--|--2--2--|
E|--3--2--|--------|

Chorus 2
E|-----------|----------------|--------------|-----|
B|-----------|----------------|--------------|-----|
G|--9--7--9--|----------------|--------------|-----|
D|--9--7--9--|----------------|--------------|--2--|
A|--7--7--7--|--9--11--9--11--|--7--9--7--9--|--2--|
E|-----------|--7--7---7--7---|--5--5--5--5--|--0--| X2

Build Up (Guitar 1)
E|-----|-----|-----|-----|-----|-----|--------|------------------|
B|-----|-----|-----|-----|-----|-----|--------|------------------|
G|-----|-----|-----|-----|-----|-----|--------|------------------|
D|--2--|--3--|--4--|--5--|--6--|--7--|--8--9--|--10--11--12--13--|
A|--2--|--3--|--4--|--5--|--6--|--7--|--8--9--|--10--11--12--13--|
E|--0--|--1--|--2--|--3--|--4--|--5--|--6--7--|--8---9---10--11--|

Build Up (Guitar 2)
E|-----|-----|-----|-----|-----|-----|--------|------------------|
B|-----|-----|-----|-----|-----|-----|--------|------------------|
G|-----|-----|-----|-----|-----|-----|--------|------------------|
D|--2--|--3--|--4--|--5--|--6--|--7--|--8--9--|--10--11--12--13--|
A|-----|-----|-----|-----|-----|-----|--------|------------------|
E|-----|-----|-----|-----|-----|-----|--------|------------------|

Solo Two
E D A A
E|--------------------------|--------------------------|--12--12-------------|--12--12-------------|
B|--------------------------|--------------------------|--12--12-------------|--12--12-------------|
G|------------------16--18--|------------------14--16--|----------14--12h13--|----------14--12h13--|
D|--14--14--17--18----------|--12--12--15--16----------|---------------------|---------------------|
A|--------------------------|--------------------------|---------------------|---------------------|
E|--------------------------|--------------------------|---------------------|---------------------|

E D A A
E|--------------------------|--------------------------|--12--12-------------|--12--12-------------|
B|--------------------------|--------------------------|--12--12-------------|--12--12-------------|
G|------------------16--18--|------------------14--16--|----------14--12h13--|----------14--12h13--|
D|--14--14--17--18----------|--12--12--15--16----------|---------------------|---------------------|
A|--------------------------|--------------------------|---------------------|---------------------|
E|--------------------------|--------------------------|---------------------|---------------------|

E D A A
E|--12--12-------------|--10--10-------------|--5--5----------|--5--5----------|
B|--12--12-------------|--10--10-------------|--5--5----------|--5--5----------|
G|----------14--12h13--|----------12--10h11--|--------7--5h6--|--------7--5h6--|
D|---------------------|---------------------|----------------|----------------|
A|---------------------|---------------------|----------------|----------------|
E|---------------------|---------------------|----------------|----------------|

E D A A G
E|--12--12-------------|--10--10-------------|--5--5----------|--5--5----------|------|
B|--12--12-------------|--10--10-------------|--5--5----------|--5--5----------|------|
G|----------14--12h13--|----------12--10h11--|--------7--5h6--|--------7--5h6--|--12--|
D|---------------------|---------------------|----------------|----------------|------|
A|---------------------|---------------------|----------------|----------------|------|
E|---------------------|---------------------|----------------|----------------|------|

Solo Two Backing
E|-------------------|-----------------|-----------------|-----------------|
B|-------------------|-----------------|-----------------|-----------------|
G|-------------------|-----------------|-----------------|-----------------|
D|--9--9--11--9--11--|--7--7--9--7--9--|-----------------|-----------------|
A|--7--7--7---7--7---|--5--5--5--5--5--|--7--7--9--7--9--|--7--9--7--9--7--|
E|-------------------|-----------------|--5--5--5--5--5--|--5--5--5--5--5--| X4

Pre Chorus 3
E|--3--3--|--------------------------|
B|--3--3--|--------------------------|
G|--0--0--|-----2--2--2-----2--2--2--|
D|--0--0--|-----2--2--2-----2--2--2--|
A|--2--2--|-----0--0--0-----0--0--0--|
E|--3--2--|--3-----------3-----------| X3

E|--3--3--|--------|
B|--3--3--|--------|
G|--0--0--|--4--4--|
D|--0--0--|--4--4--|
A|--2--2--|--2--2--|
E|--3--2--|--------|

Chorus 3 (One guitar)
E|-----------|----------------|--------------|-----|
B|-----------|----------------|--------------|-----|
G|--9--7--9--|----------------|--------------|-----|
D|--9--7--9--|----------------|--------------|--2--|
A|--7--7--7--|--9--11--9--11--|--7--9--7--9--|--2--|
E|-----------|--7--7---7--7---|--5--5--5--5--|--0--| X2

Chorus 4
E|-----------|----------------|--------------|-----|
B|-----------|----------------|--------------|-----|
G|--9--7--9--|----------------|--------------|-----|
D|--9--7--9--|----------------|--------------|--2--|
A|--7--7--7--|--9--11--9--11--|--7--9--7--9--|--2--|
E|-----------|--7--7---7--7---|--5--5--5--5--|--0--| X2

Outro Solo Part One
E|--------------------|--------------------|--------------------|-----------------------|
B|--------------------|--------------------|--------------------|-----------------------|
G|--------------------|--------------2--4--|--------------------|-----------------------|
D|--------------------|--0--0--3--4--------|--------------2--4--|--------------2--4--2--|
A|--------------2--4--|--------------------|--0--0--3--4--------|--0--0--3--4-----------|
E|--0--0--3--4--------|--------------------|--------------------|-----------------------| X2

Outro Solo Part Two
E|--------------------------|--------------------------|-----------------------|
B|--------------------------|--------------------------|-----------------------|
G|------------------16--18--|------------------14--16--|----------------9--11--|
D|--14--14--17--18----------|--12--12--15--16----------|--7--7--10--11---------|
A|--------------------------|--------------------------|-----------------------|
E|--------------------------|--------------------------|-----------------------|

E|--------------------------|
B|--------------------------|
G|----------------9--11--9--|
D|--7--7--10--11------------|
A|--------------------------|
E|--------------------------| X2

Outro Solo Backing
E|-------------------|-----------------|-----------------|-----------------|
B|-------------------|-----------------|-----------------|-----------------|
G|-------------------|-----------------|-----------------|-----------------|
D|--9--9--11--9--11--|--7--7--9--7--9--|-----------------|-----------------|
A|--7--7--7---7--7---|--5--5--5--5--5--|--7--7--9--7--9--|--7--9--7--9--7--|
E|-------------------|-----------------|--5--5--5--5--5--|--5--5--5--5--5--| X4

End Lead Guitar
E|------|
B|------|
G|------|
D|--14--|
A|------|
E|------|

End Rhythm Guitar
E|-----|
B|-----|
G|-----|
D|--2--|
A|--2--|
E|--0--|
Guitar Tab Creator is intended to store guitar tab created through the tool. It currently does not support in-line text editing. Any text you place in here will be lost. If you need to comment on your tab, please use the "Tab Notes" section located below.