SLJ build up, PC

(/) Slide Up  (\) Slide Down  (h) Hammer On  (p) Pull Off  (b) Bend (r) Release (v) Vibrato


E|-----|-----|-----|-----|-----|-----|--------|------------------|--
B|-----|-----|-----|-----|-----|-----|--------|------------------|--
G|-----|-----|-----|-----|-----|-----|--------|------------------|--
D|--2--|--3--|--4--|--5--|--6--|--7--|--8--9--|--10--11--12--13--|--
A|--2--|--3--|--4--|--5--|--6--|--7--|--8--9--|--10--11--12--13--|--
E|--0--|--1--|--2--|--3--|--4--|--5--|--6--7--|--8---9---10--11--|--



E|-----|-----|-----|-----|-----|-----|--------|------------------|--
B|-----|-----|-----|-----|-----|-----|--------|------------------|--
G|-----|-----|-----|-----|-----|-----|--------|------------------|--
D|--2--|--3--|--4--|--5--|--6--|--7--|--8--9--|--10--11--12--13--|--
A|-----|-----|-----|-----|-----|-----|--------|------------------|--
E|-----|-----|-----|-----|-----|-----|--------|------------------|--



E|--3--3--|--------------------------|--
B|--3--3--|--------------------------|--
G|--0--0--|-----2--2--2-----2--2--2--|--
D|--0--0--|-----2--2--2-----2--2--2--|--
A|--2--2--|-----0--0--0-----0--0--0--|--
E|--3--2--|--3-----------3-----------|--



E|--3--3--|--------|
B|--3--3--|--------|
G|--0--0--|--4--4--|
D|--0--0--|--4--4--|
A|--2--2--|--2--2--|
E|--3--2--|--------|
http://www.guitartabcreator.com
Guitar Tab Creator is intended to store guitar tab created through the tool. It currently does not support in-line text editing. Any text you place in here will be lost. If you need to comment on your tab, please use the "Tab Notes" section located below.