OGR Solo

(/) Slide Up  (\) Slide Down  (h) Hammer On  (p) Pull Off  (b) Bend (r) Release (v) Vibrato


E|----------------------------------------------|---------------|-------|--
B|--15p13------15p13------15p13------15p13------|--15b17r15p13--|-------|--
G|---------14---------14---------14---------14--|---------------|--14v--|--
D|----------------------------------------------|---------------|-------|--
A|----------------------------------------------|---------------|-------|--
E|----------------------------------------------|---------------|-------|--



E|--------|--------|-------|--
B|--------|--------|-------|--
G|--2--5--|--7--9--|--14v--|--
D|--------|--------|-------|--
A|--------|--------|-------|--
E|--------|--------|-------|--



E|----------------------------------------------|--17p14------17p14------17p14------17p14------|--
B|--17p13------17p13------17p13------17p13------|---------15---------15---------15---------15--|--
G|---------14---------14---------14---------14--|----------------------------------------------|--
D|----------------------------------------------|----------------------------------------------|--
A|----------------------------------------------|----------------------------------------------|--
E|----------------------------------------------|----------------------------------------------|--



E|--17p14------17p14------17p14------17p14------|--15b17--|--
B|---------15---------15---------15---------15--|---------|--
G|----------------------------------------------|---------|--
D|----------------------------------------------|---------|--
A|----------------------------------------------|---------|--
E|----------------------------------------------|---------|--
http://www.guitartabcreator.com
Guitar Tab Creator is intended to store guitar tab created through the tool. It currently does not support in-line text editing. Any text you place in here will be lost. If you need to comment on your tab, please use the "Tab Notes" section located below.