OGR Done

Intro Guitar One
E|-----|-----|-----|-----|
B|-----|-----|-----|-----|
G|--5--|--5--|--7--|--7--|
D|--7--|--5--|--5--|--5--|
A|-----|-----|-----|-----|
E|-----|-----|-----|-----| X4

Intro Guitar Two
E|-----|-----|-----|-----|-----|-----|-----|-----|
B|-----|-----|-----|-----|-----|-----|-----|-----|
G|--2--|--5--|--7--|--7--|--2--|--5--|-----|-----|
D|--2--|--5--|--7--|--7--|--2--|--5--|--5--|--5--|
A|--0--|--3--|--5--|--5--|--0--|--3--|--5--|--5--|
E|-----|-----|-----|-----|-----|-----|--3--|--3--| X2

Verse 1 (1st Half Bass Guitar Only)
E|-----|-----|----------------|
B|-----|-----|----------------|
G|-----|-----|----------------|
D|--7--|--5--|--3--3----2--2--|
A|--7--|--5--|--3--3----2--2--|
E|--5--|--3--|--1--1----0--0--|

Pre Chorus 1 Guitar One
E|--------------------------|----------------|
B|--------------------------|----------------|
G|--4--5--7--10--9--14--12--|----------------|
D|--------------------------|--9--9----9--9--|
A|--2--3--5--8---7--12--10--|--9--9----9--9--|
E|--------------------------|--7--7----7--7--|

Pre Chorus 1 Guitar Two
E|-----|-----|-----|-----|----------------|
B|-----|-----|-----|-----|----------------|
G|-----|-----|--2--|--5--|--4--4----4--4--|
D|--3--|--5--|--2--|--5--|--4--4----4--4--|
A|--3--|--5--|--0--|--3--|--2--2----2--2--|
E|--1--|--3--|-----|-----|----------------|

Chorus 1
E|-----|-----|-----|--|-----|-----|-----|-----|-----|-----|-----|-----|
B|-----|-----|-----|--|-----|-----|-----|-----|-----|-----|-----|-----|
G|-----|-----|--2--|--|--5--|--7--|-----|-----|--2--|--5--|--7--|--9--|
D|--2--|--5--|--2--|--|--5--|--7--|--2--|--5--|--2--|--5--|--7--|--9--|
A|--2--|--5--|--0--|--|--3--|--5--|--2--|--5--|--0--|--3--|--5--|--7--|
E|--0--|--3--|-----|--|-----|-----|--0--|--3--|-----|-----|-----|-----|

Whoo's
E|------------------------|
B|------------------------|
G|--9--7--9--10--9--7--5--|
D|------------------------|
A|--7--5--7--8---7--5--3--|
E|------------------------|

Break
E|-----|
B|-----|
G|--2--|
D|--2--|
A|--0--|
E|-----|

Verse 2 Guitar One
E|-----|-----|-----|-----|-----|-----|----------------|
B|-----|-----|-----|-----|-----|-----|----------------|
G|--5--|--5--|--5--|--4--|--5--|--5--|--5--5----4--4--|
D|--7--|--5--|--3--|--2--|--7--|--5--|--3--3----2--2--|
A|-----|-----|-----|-----|-----|-----|----------------|
E|-----|-----|-----|-----|-----|-----|----------------|

Verse 2 Guitar Two
E|-----|-----|-----|-----|-----|-----|----------------|
B|-----|-----|-----|-----|-----|-----|----------------|
G|-----|-----|-----|-----|-----|-----|----------------|
D|--7--|--5--|--3--|--2--|--7--|--5--|--3--3----2--2--|
A|--7--|--5--|--3--|--2--|--7--|--5--|--3--3----2--2--|
E|--5--|--3--|--1--|--0--|--5--|--3--|--1--1----0--0--|

Pre Chorus 2 Guitar One
E|--------------------------|----------------|
B|--------------------------|----------------|
G|--4--5--7--10--9--14--12--|----------------|
D|--------------------------|--9--9----9--9--|
A|--2--3--5--8---7--12--10--|--9--9----9--9--|
E|--------------------------|--7--7----7--7--|

Pre Chorus 2 Guitar Two
E|-----|-----|-----|-----|----------------|
B|-----|-----|-----|-----|----------------|
G|-----|-----|--2--|--5--|--4--4----4--4--|
D|--3--|--5--|--2--|--5--|--4--4----4--4--|
A|--3--|--5--|--0--|--3--|--2--2----2--2--|
E|--1--|--3--|-----|-----|----------------|

Chorus 2
E|-----|-----|-----|--|-----|-----|-----|-----|-----|-----|-----|-----|
B|-----|-----|-----|--|-----|-----|-----|-----|-----|-----|-----|-----|
G|-----|-----|--2--|--|--5--|--7--|-----|-----|--2--|--5--|--7--|--9--|
D|--2--|--5--|--2--|--|--5--|--7--|--2--|--5--|--2--|--5--|--7--|--9--|
A|--2--|--5--|--0--|--|--3--|--5--|--2--|--5--|--0--|--3--|--5--|--7--|
E|--0--|--3--|-----|--|-----|-----|--0--|--3--|-----|-----|-----|-----|

Whoo's 2 (All guitars Pause)

Break down
E|-----|-----|-----|-----|
B|-----|-----|-----|-----|
G|--2--|--5--|--7--|--7--|
D|--2--|--5--|--7--|--7--|
A|--0--|--3--|--5--|--5--|
E|-----|-----|-----|-----| X4

Solo
A C D
E|----------------------------------------------|---------------|-------|
B|--15p13------15p13------15p13------15p13------|--15b17r15p13--|-------|
G|---------14---------14---------14---------14--|---------------|--14v--|
D|----------------------------------------------|---------------|-------|
A|----------------------------------------------|---------------|-------|
E|----------------------------------------------|---------------|-------|

A C D
E|--------|--------|-------|
B|--------|--------|-------|
G|--2--5--|--7--9--|--14v--|
D|--------|--------|-------|
A|--------|--------|-------|
E|--------|--------|-------|

A
E|----------------------------------------------|
B|--15p13------15p13------15p13------15p13------|
G|---------14---------14---------14---------14--|
D|----------------------------------------------|
A|----------------------------------------------|
E|----------------------------------------------|

C D
E|----------------------------------------------|--17p14------17p14------17p14------17p14------|
B|--17p13------17p13------17p13------17p13------|---------15---------15---------15---------15--|
G|---------14---------14---------14---------14--|----------------------------------------------|
D|----------------------------------------------|----------------------------------------------|
A|----------------------------------------------|----------------------------------------------|
E|----------------------------------------------|----------------------------------------------|

D A
E|--17p14------17p14------17p14------17p14------|----------------------------------------------|
B|---------15---------15---------15---------15--|--15p13------15p13------15p13------15p13------|
G|----------------------------------------------|---------14---------14---------14---------14--|
D|----------------------------------------------|----------------------------------------------|
A|----------------------------------------------|----------------------------------------------|
E|----------------------------------------------|----------------------------------------------|

C D
E|----------------------------------------------|--17p14------17p14------17p14------17p14------|
B|--17p13------17p13------17p13------17p13------|---------15---------15---------15---------15--|
G|---------14---------14---------14---------14--|----------------------------------------------|
D|----------------------------------------------|----------------------------------------------|
A|----------------------------------------------|----------------------------------------------|
E|----------------------------------------------|----------------------------------------------|

D F
E|--17p14------17p14------17p14------17p14------|--15b17--|
B|---------15---------15---------15---------15--|---------|
G|----------------------------------------------|---------|
D|----------------------------------------------|---------|
A|----------------------------------------------|---------|
E|----------------------------------------------|---------|

Pre Chorus 3 Guitar One
E|--------------------------|----------------|
B|--------------------------|----------------|
G|--4--5--7--10--9--14--12--|----------------|
D|--------------------------|--9--9----9--9--|
A|--2--3--5--8---7--12--10--|--9--9----9--9--|
E|--------------------------|--7--7----7--7--|

Pre Chorus 3 Guitar Two
E|-----|-----|-----|-----|----------------|
B|-----|-----|-----|-----|----------------|
G|-----|-----|--2--|--5--|--4--4----4--4--|
D|--3--|--5--|--2--|--5--|--4--4----4--4--|
A|--3--|--5--|--0--|--3--|--2--2----2--2--|
E|--1--|--3--|-----|-----|----------------|

Chorus 3
E|-----|-----|-----|--|-----|-----|-----|-----|-----|-----|-----|-----|
B|-----|-----|-----|--|-----|-----|-----|-----|-----|-----|-----|-----|
G|-----|-----|--2--|--|--5--|--7--|-----|-----|--2--|--5--|--7--|--9--|
D|--2--|--5--|--2--|--|--5--|--7--|--2--|--5--|--2--|--5--|--7--|--9--|
A|--2--|--5--|--0--|--|--3--|--5--|--2--|--5--|--0--|--3--|--5--|--7--|
E|--0--|--3--|-----|--|-----|-----|--0--|--3--|-----|-----|-----|-----|

Whoo's
E|------------------------|
B|------------------------|
G|--9--7--9--10--9--7--5--|
D|------------------------|
A|--7--5--7--8---7--5--3--|
E|------------------------|

End
E|-----|
B|-----|
G|--2--|
D|--2--|
A|--0--|
E|-----|
Guitar Tab Creator is intended to store guitar tab created through the tool. It currently does not support in-line text editing. Any text you place in here will be lost. If you need to comment on your tab, please use the "Tab Notes" section located below.