OGR Bits

(/) Slide Up  (\) Slide Down  (h) Hammer On  (p) Pull Off  (b) Bend (r) Release (v) Vibrato


E|-----|-----|-----|-----|--
B|-----|-----|-----|-----|--
G|-----|-----|-----|-----|--
D|--7--|--5--|--3--|--2--|--
A|--7--|--5--|--3--|--2--|--
E|--5--|--3--|--1--|--0--|--



E|-----|-----|-----|-----|--
B|-----|-----|-----|-----|--
G|--5--|--5--|--5--|--4--|--
D|--7--|--5--|--3--|--2--|--
A|-----|-----|-----|-----|--
E|-----|-----|-----|-----|--



E|-----|-----|-----|-----|--
B|-----|-----|-----|-----|--
G|--2--|--5--|--7--|--7--|--
D|--2--|--5--|--7--|--7--|--
A|--0--|--3--|--5--|--5--|--
E|-----|-----|-----|-----|--



E|-----|--
B|-----|--
G|--2--|--
D|--2--|--
A|--0--|--
E|-----|--
http://www.guitartabcreator.com
Guitar Tab Creator is intended to store guitar tab created through the tool. It currently does not support in-line text editing. Any text you place in here will be lost. If you need to comment on your tab, please use the "Tab Notes" section located below.