OGR 1st third

(/) Slide Up  (\) Slide Down  (h) Hammer On  (p) Pull Off  (b) Bend (r) Release (v) Vibrato


E|-----|-----|-----|-----|-----
B|-----|-----|-----|-----|-----
G|--5--|--5--|--7--|--7--|-----
D|--7--|--5--|--5--|--5--|-----
A|-----|-----|-----|-----|-----
E|-----|-----|-----|-----|-----



E|-----|-----|-----|-----|--
B|-----|-----|-----|-----|--
G|--2--|--5--|--7--|--7--|--
D|--2--|--5--|--7--|--7--|--
A|--0--|--3--|--5--|--5--|--
E|-----|-----|-----|-----|--



E|-----|-----|-----|-----|--
B|-----|-----|-----|-----|--
G|--2--|--5--|-----|-----|--
D|--2--|--5--|--5--|--5--|--
A|--0--|--3--|--5--|--5--|--
E|-----|-----|--3--|--3--|--



E|-----|-----|--------------|--
B|-----|-----|--------------|--
G|-----|-----|--------------|--
D|--7--|--5--|--3--3--2--2--|--
A|--7--|--5--|--3--3--2--2--|--
E|--5--|--3--|--1--1--0--0--|--



E|-----|-----|-----|-----|----------------|--
B|-----|-----|-----|-----|----------------|--
G|-----|-----|--2--|--5--|--4--4----4--4--|--
D|--3--|--5--|--2--|--5--|--4--4----4--4--|--
A|--3--|--5--|--0--|--3--|--2--2----2--2--|--
E|--1--|--3--|-----|-----|----------------|--



E|--------------------------|----------------|--
B|--------------------------|----------------|--
G|--4--5--7--10--9--14--12--|----------------|--
D|--------------------------|--9--9----9--9--|--
A|--2--3--5--8---7--12--10--|--9--9----9--9--|--
E|--------------------------|--7--7----7--7--|--



E|-----|-----|-----|--|-----|-----|--
B|-----|-----|-----|--|-----|-----|--
G|-----|-----|--2--|--|--5--|--7--|--
D|--2--|--5--|--2--|--|--5--|--7--|--
A|--2--|--5--|--0--|--|--3--|--5--|--
E|--0--|--3--|-----|--|-----|-----|--



E|-----|-----|-----|-----|-----|-----|--
B|-----|-----|-----|-----|-----|-----|--
G|-----|-----|--2--|--5--|--7--|--9--|--
D|--2--|--5--|--2--|--5--|--7--|--9--|--
A|--2--|--5--|--0--|--3--|--5--|--7--|--
E|--0--|--3--|-----|-----|-----|-----|--



E|------------------------|--
B|------------------------|--
G|--9--7--9--10--9--7--5--|--
D|------------------------|--
A|--7--5--7--8---7--5--3--|--
E|------------------------|--
http://www.guitartabcreator.com
Guitar Tab Creator is intended to store guitar tab created through the tool. It currently does not support in-line text editing. Any text you place in here will be lost. If you need to comment on your tab, please use the "Tab Notes" section located below.