MMD

(/) Slide Up  (\) Slide Down  (h) Hammer On  (p) Pull Off  (b) Bend (r) Release (v) Vibrato


E|-----------------------------------------|--
B|-----------------------------------------|--
G|--------9--------9--------9--------7-----|--
D|--2--2--9--2--2--9--2--2--9--2--2--7--9--|--
A|--2--2--7--2--2--7--2--2--7--2--2--7--7--|--
E|--0--0-----0--0-----0--0-----0--0--------|--



E|----------------------------|--
B|----------------------------|--
G|--------9--------9--5----7--|--
D|--2--2--9--2--2--9--5----7--|--
A|--2--2--7--2--2--7--3----5--|--
E|--0--0-----0--0-------------|--



E|------
B|------
G|--9---
D|--10--
A|------
E|------



E|---------------------------------|-------------------------------------|--
B|---------------------------------|-------------------------------------|--
G|--9------9------9------9---------|--11------11------11------11---------|--
D|-----10-----10-----10-----10/12--|------12------12------12------12/14--|--
A|---------------------------------|-------------------------------------|--
E|---------------------------------|-------------------------------------|--



E|-------------------------------------|----------------------------------|--
B|-------------------------------------|----------------------------------|--
G|--12------12------12------12---------|--14------14------14------14------|--
D|------14------14------14------14/16--|------16------16------16------16--|--
A|-------------------------------------|----------------------------------|--
E|-------------------------------------|----------------------------------|--



E|--------------------|----------|--
B|--------------------|----------|--
G|--------9--------9--|--5----7--|--
D|--2--2--9--2--2--9--|--5----7--|--
A|--2--2--7--2--2--7--|--3----5--|--
E|--0--0-----0--0-----|----------|--



E|-----|-----|------|------|--
B|-----|-----|------|------|--
G|--5--|--7--|--10--|--12--|--
D|--5--|--7--|--10--|--12--|--
A|--3--|--5--|--8---|--10--|--
E|-----|-----|------|------|--



E|--|-----|-----|-----|-----|--
B|--|-----|-----|-----|-----|--
G|--|-----|-----|-----|-----|--
D|--|--2--|--4--|--7--|--9--|--
A|--|-----|-----|-----|-----|--
E|--|-----|-----|-----|-----|--
http://www.guitartabcreator.com
Guitar Tab Creator is intended to store guitar tab created through the tool. It currently does not support in-line text editing. Any text you place in here will be lost. If you need to comment on your tab, please use the "Tab Notes" section located below.