Make my day start

(/) Slide Up  (\) Slide Down  (h) Hammer On  (p) Pull Off  (b) Bend (r) Release (v) Vibrato


E|--12--|--15--|--12--|--12--12--12--12----12--12--12--12--|--
B|--12--|--12--|--12--|--13--13--13--13----15--15--15--15--|--
G|------|------|------|------------------------------------|--
D|------|------|------|------------------------------------|--
A|------|------|------|------------------------------------|--
E|------|------|------|------------------------------------|--



E|-----|----|-----|----------------------------|--
B|-----|----|-----|----------------------------|--
G|-----|----|-----|--5--5--5--5----7--7--7--7--|--
D|--2--|----|--2--|--5--5--5--5----7--7--7--7--|--
A|--2--|----|--2--|--3--3--3--3----5--5--5--5--|--
E|--0--|----|--0--|----------------------------|--



E|---------------------------|--------------------|--
B|---------------------------|--------------------|--
G|--------9------------------|--5--7--------------|--
D|--2--2--9--2p0----------2--|--5--7-------0h2p0--|--
A|--2--2--7-------2p0-----2--|--3--5--0h2---------|--
E|--0--0---------------3--0--|--------------------|--



E|---------------------------|----------------------------|-----
B|---------------------------|----------------------------|-----
G|--------9------------------|--5--5--5--5----7--7--7--7--|-----
D|--2--2--9--2p0----------2--|--5--5--5--5----7--7--7--7--|-----
A|--2--2--7-------2p0-----2--|--3--3--3--3----5--5--5--5--|-----
E|--0--0---------------3--0--|----------------------------|--12\



E|-----------------
B|-----------------
G|-----------------
D|--------7--9--7--
A|--7--9-----------
E|-----------------
http://www.guitartabcreator.com
Guitar Tab Creator is intended to store guitar tab created through the tool. It currently does not support in-line text editing. Any text you place in here will be lost. If you need to comment on your tab, please use the "Tab Notes" section located below.