make my day solo

(/) Slide Up  (\) Slide Down  (h) Hammer On  (p) Pull Off  (b) Bend (r) Release (v) Vibrato


E|--------------|--12--14--15p14p12---------------------------|--
B|--15b17--15v--|--------------------15v----------------------|--
G|--------------|---------------------------------11--12------|--
D|--------------|-------------------------12--14----------14--|--
A|--------------|---------------------------------------------|--
E|--------------|---------------------------------------------|--



E|--------------|------14--15--17--17b19--17v----------14--15------|--
B|--15b17--15v--|--17--------------------------15--17----------17--|--
G|--------------|--------------------------------------------------|--
D|--------------|--------------------------------------------------|--
A|--------------|--------------------------------------------------|--
E|--------------|--------------------------------------------------|--
http://www.guitartabcreator.com
Guitar Tab Creator is intended to store guitar tab created through the tool. It currently does not support in-line text editing. Any text you place in here will be lost. If you need to comment on your tab, please use the "Tab Notes" section located below.