MAKE MY DAY DONE

Intro Lead Guitar
E|--12--|--15--|--12--|--12--12--12--12----12--12--12--12--|
B|--12--|--12--|--12--|--13--13--13--13----15--15--15--15--|
G|------|------|------|------------------------------------|
D|------|------|------|------------------------------------|
A|------|------|------|------------------------------------|
E|------|------|------|------------------------------------|

Intro Backing
E|-----|-----|-----|----------------------------|
B|-----|-----|-----|----------------------------|
G|-----|-----|-----|--5--5--5--5----7--7--7--7--|
D|--2--|--2--|--2--|--5--5--5--5----7--7--7--7--|
A|--2--|--2--|--2--|--3--3--3--3----5--5--5--5--|
E|--0--|--0--|--0--|----------------------------|

Main Riff
E|---------------------------|--------------------|
B|---------------------------|--------------------|
G|--------9------------------|--5--7--------------|
D|--2--2--9--2p0----------2--|--5--7-------0h2p0--|
A|--2--2--7-------2p0-----2--|--3--5--0h2---------|
E|--0--0---------------3--0--|--------------------|

E|---------------------------|----------------------------|-------|
B|---------------------------|----------------------------|-------|
G|--------9------------------|--5--5--5--5----7--7--7--7--|-------|
D|--2--2--9--2p0----------2--|--5--5--5--5----7--7--7--7--|-------|
A|--2--2--7-------2p0-----2--|--3--3--3--3----5--5--5--5--|-------|
E|--0--0---------------3--0--|----------------------------|--12\--|

Main Riff Harmony line
E|---------------------------|-----------------|
B|---------------------------|-----------------|
G|--------9------------------|-----------------|
D|--2--2--9--2p0----------2--|--------7--9--7--|
A|--2--2--7-------2p0-----2--|--7--9-----------|
E|--0--0---------------3--0--|-----------------|

E|---------------------------|----------------------------|-------|
B|---------------------------|----------------------------|-------|
G|--------9------------------|--5--5--5--5----7--7--7--7--|-------|
D|--2--2--9--2p0----------2--|--5--5--5--5----7--7--7--7--|-------|
A|--2--2--7-------2p0-----2--|--3--3--3--3----5--5--5--5--|-------|
E|--0--0---------------3--0--|----------------------------|--12\--|

Verse 1
E|-----------------------------------------|
B|-----------------------------------------|
G|--------9--------9--------9--------------|
D|--2--2--9--2--2--9--2--2--9--2--2--7h9---|
A|--2--2--7--2--2--7--2--2--7--2--2--7-7---|
E|--0--0-----0--0-----0--0-----0--0--------|
* * * * * * * *

E|------------------------------|
B|------------------------------|
G|--------9--------9----5----7--|
D|--2--2--9--2--2--9----5----7--|
A|--2--2--7--2--2--7----3----5--|
E|--0--0-----0--0---------------| X2
* * * *

Chorus (Backing guitars plays chords)
C D
E|---------------------------------|-------------------------------------|
B|---------------------------------|-------------------------------------|
G|--9------9------9------9---------|--11------11------11------11---------|
D|-----10-----10-----10-----10/12--|------12------12------12------12/14--|
A|---------------------------------|-------------------------------------|
E|---------------------------------|-------------------------------------|
C D
E|-------------------------------------|----------------------------------|
B|-------------------------------------|----------------------------------|
G|--12------12------12------12---------|--14------14------14------14------|
D|------14------14------14------14/16--|------16------16------16------16--|
A|-------------------------------------|----------------------------------|
E|-------------------------------------|----------------------------------|

Main Riff
E|---------------------------|--------------------|
B|---------------------------|--------------------|
G|--------9------------------|--5--7--------------|
D|--2--2--9--2p0----------2--|--5--7-------0h2p0--|
A|--2--2--7-------2p0-----2--|--3--5--0h2---------|
E|--0--0---------------3--0--|--------------------|

E|---------------------------|----------------------------|-------|
B|---------------------------|----------------------------|-------|
G|--------9------------------|--5--5--5--5----7--7--7--7--|-------|
D|--2--2--9--2p0----------2--|--5--5--5--5----7--7--7--7--|-------|
A|--2--2--7-------2p0-----2--|--3--3--3--3----5--5--5--5--|-------|
E|--0--0---------------3--0--|----------------------------|--12\--|

Main Riff Harmony line
E|---------------------------|-----------------|
B|---------------------------|-----------------|
G|--------9------------------|-----------------|
D|--2--2--9--2p0----------2--|--------7--9--7--|
A|--2--2--7-------2p0-----2--|--7--9-----------|
E|--0--0---------------3--0--|-----------------|

E|---------------------------|----------------------------|-------|
B|---------------------------|----------------------------|-------|
G|--------9------------------|--5--5--5--5----7--7--7--7--|-------|
D|--2--2--9--2p0----------2--|--5--5--5--5----7--7--7--7--|-------|
A|--2--2--7-------2p0-----2--|--3--3--3--3----5--5--5--5--|-------|
E|--0--0---------------3--0--|----------------------------|--12\--|

Verse 2
E|-----------------------------------------|
B|-----------------------------------------|
G|--------9--------9--------9--------------|
D|--2--2--9--2--2--9--2--2--9--2--2--7h9---|
A|--2--2--7--2--2--7--2--2--7--2--2--7-7---|
E|--0--0-----0--0-----0--0-----0--0--------|
* * * * * * * *

E|------------------------------|
B|------------------------------|
G|--------9--------9----5----7--|
D|--2--2--9--2--2--9----5----7--|
A|--2--2--7--2--2--7----3----5--|
E|--0--0-----0--0---------------| X2
* * * *

Chorus 2 (Backing guitars plays chords)
C D
E|---------------------------------|-------------------------------------|
B|---------------------------------|-------------------------------------|
G|--9------9------9------9---------|--11------11------11------11---------|
D|-----10-----10-----10-----10/12--|------12------12------12------12/14--|
A|---------------------------------|-------------------------------------|
E|---------------------------------|-------------------------------------|
C D
E|-------------------------------------|----------------------------------|
B|-------------------------------------|----------------------------------|
G|--12------12------12------12---------|--14------14------14------14------|
D|------14------14------14------14/16--|------16------16------16------16--|
A|-------------------------------------|----------------------------------|
E|-------------------------------------|----------------------------------|

Main Riff
E|---------------------------|--------------------|
B|---------------------------|--------------------|
G|--------9------------------|--5--7--------------|
D|--2--2--9--2p0----------2--|--5--7-------0h2p0--|
A|--2--2--7-------2p0-----2--|--3--5--0h2---------|
E|--0--0---------------3--0--|--------------------|

E|---------------------------|----------|
B|---------------------------|----------|
G|--------9------------------|--5----7--|
D|--2--2--9--2p0----------2--|--5----7--|
A|--2--2--7-------2p0-----2--|--3----5--|
E|--0--0---------------3--0--|----------|

Main Riff Harmony line
E|---------------------------|-----------------|
B|---------------------------|-----------------|
G|--------9------------------|-----------------|
D|--2--2--9--2p0----------2--|--------7--9--7--|
A|--2--2--7-------2p0-----2--|--7--9-----------|
E|--0--0---------------3--0--|-----------------|

E|---------------------------|----------|
B|---------------------------|----------|
G|--------9------------------|--5----7--|
D|--2--2--9--2p0----------2--|--5----7--|
A|--2--2--7-------2p0-----2--|--3----5--|
E|--0--0---------------3--0--|----------|

Build up
E|-----|-----|------|------|
B|-----|-----|------|------|
G|--5--|--7--|--10--|--12--|
D|--5--|--7--|--10--|--12--|
A|--3--|--5--|--8---|--10--|
E|-----|-----|------|------|

Harmony
E|-----|-----|-----|-----|
B|-----|-----|-----|-----|
G|-----|-----|-----|-----|
D|--2--|--4--|--7--|--9--|
A|-----|-----|-----|-----|
E|-----|-----|-----|-----|

Solo
E C D
E|--------------|--12--14--15p14p12---------------------------|
B|--15b17--15v--|--------------------15v----------------------|
G|--------------|---------------------------------11--12------|
D|--------------|-------------------------12--14----------14--|
A|--------------|---------------------------------------------|
E|--------------|---------------------------------------------|

E C D
E|--------------|------14--15--17--17b19--17v----------14--15------|
B|--15b17--15v--|--17--------------------------15--17----------17--|
G|--------------|--------------------------------------------------|
D|--------------|--------------------------------------------------|
A|--------------|--------------------------------------------------|
E|--------------|--------------------------------------------------|

E C D
E|--------------|--12--14--15p14p12---------------------------|
B|--15b17--15v--|--------------------15v----------------------|
G|--------------|---------------------------------11--12------|
D|--------------|-------------------------12--14----------14--|
A|--------------|---------------------------------------------|
E|--------------|---------------------------------------------|

E C D
E|--------------|------14--15--17--17b19--17v----15--|------|
B|--15b17--15v--|--17--------------------------------|--17--|
G|--------------|------------------------------------|------|
D|--------------|------------------------------------|------|
A|--------------|------------------------------------|------|
E|--------------|------------------------------------|------|

Solo backing
E|--------------------|----------|
B|--------------------|----------|
G|--------9--------9--|--5----7--|
D|--2--2--9--2--2--9--|--5----7--|
A|--2--2--7--2--2--7--|--3----5--|
E|--0--0-----0--0-----|----------| X4

Chorus 3 (Backing guitars plays chords)
C D
E|---------------------------------|-------------------------------------|
B|---------------------------------|-------------------------------------|
G|--9------9------9------9---------|--11------11------11------11---------|
D|-----10-----10-----10-----10/12--|------12------12------12------12/14--|
A|---------------------------------|-------------------------------------|
E|---------------------------------|-------------------------------------|
C D
E|-------------------------------------|-----|
B|-------------------------------------|-----|
G|--12------12------12------12---------|--7--|
D|------14------14------14------14/16--|--7--|
A|-------------------------------------|--5--|
E|-------------------------------------|-----|

Main Riff
E|---------------------------|--------------------|
B|---------------------------|--------------------|
G|--------9------------------|--5--7--------------|
D|--2--2--9--2p0----------2--|--5--7-------0h2p0--|
A|--2--2--7-------2p0-----2--|--3--5--0h2---------|
E|--0--0---------------3--0--|--------------------|

E|---------------------------|--------------------|
B|---------------------------|--------------------|
G|--------9------------------|--5--7--------------|
D|--2--2--9--2p0----------2--|--5--7-------0h2p0--|
A|--2--2--7-------2p0-----2--|--3--5--0h2---------|
E|--0--0---------------3--0--|--------------------|

E|---------------------------|--------------------|
B|---------------------------|--------------------|
G|--------9------------------|--5--7--------------|
D|--2--2--9--2p0----------2--|--5--7-------0h2p0--|
A|--2--2--7-------2p0-----2--|--3--5--0h2---------|
E|--0--0---------------3--0--|--------------------|

E|---------------------------|----------|-----|
B|---------------------------|----------|-----|
G|--------9------------------|--5----7--|-----|
D|--2--2--9--2p0----------2--|--5----7--|--2--|
A|--2--2--7-------2p0-----2--|--3----5--|--2--|
E|--0--0---------------3--0--|----------|--0--|

Main Riff Harmony line
E|---------------------------|-----------------|
B|---------------------------|-----------------|
G|--------9------------------|-----------------|
D|--2--2--9--2p0----------2--|--------7--9--7--|
A|--2--2--7-------2p0-----2--|--7--9-----------|
E|--0--0---------------3--0--|-----------------|

E|---------------------------|-----------------|
B|---------------------------|-----------------|
G|--------9------------------|-----------------|
D|--2--2--9--2p0----------2--|--------7--9--7--|
A|--2--2--7-------2p0-----2--|--7--9-----------|
E|--0--0---------------3--0--|-----------------|

E|---------------------------|-----------------|
B|---------------------------|-----------------|
G|--------9------------------|-----------------|
D|--2--2--9--2p0----------2--|--------7--9--7--|
A|--2--2--7-------2p0-----2--|--7--9-----------|
E|--0--0---------------3--0--|-----------------|

E|---------------------------|----------|-----|
B|---------------------------|----------|-----|
G|--------9------------------|--5----7--|-----|
D|--2--2--9--2p0----------2--|--5----7--|--2--|
A|--2--2--7-------2p0-----2--|--3----5--|--2--|
E|--0--0---------------3--0--|----------|--0--|

Outro Solo
E|--------------|--12--14--15p14p12---------------------------|
B|--15b17--15v--|--------------------15v----------------------|
G|--------------|---------------------------------11--12------|
D|--------------|-------------------------12--14----------14--|
A|--------------|---------------------------------------------|
E|--------------|---------------------------------------------|

E|--------------|------14--15--17--17b19--17v----15--|------|
B|--15b17--15v--|--17--------------------------------|--17--|
G|--------------|------------------------------------|------|
D|--------------|------------------------------------|------|
A|--------------|------------------------------------|------|
E|--------------|------------------------------------|------|
Guitar Tab Creator is intended to store guitar tab created through the tool. It currently does not support in-line text editing. Any text you place in here will be lost. If you need to comment on your tab, please use the "Tab Notes" section located below.