let me be solo double time

(/) Slide Up  (\) Slide Down  (h) Hammer On  (p) Pull Off  (b) Bend (r) Release (v) Vibrato


E|-----------------------------------------------------------------------------|--
B|-------5-------5-------5-------5-------5--7p5--------------------------------|--
G|--5h6-----5h6-----5h6-----5h6-----5h6----------7p5--6p5----------------------|--
D|---------------------------------------------------------7p5--------------7--|--
A|--------------------------------------------------------------7--6--5--3-----|--
E|-----------------------------------------------------------------------------|--



E|----------------------------------------------------------------9--10--11--12--8------|--
B|-------5-----7---------------------------------------10--12b14--------------------10--|--
G|--5h6-----5-----5------------------------------9h11-----------------------------------|--
D|------------------------7h9h10p9p7-----7h9/11-----------------------------------------|--
A|-------------------7h9--------------9-------------------------------------------------|--
E|--------------------------------------------------------------------------------------|--



E|--8--9--10--11--12v--|--
B|---------------------|--
G|---------------------|--
D|---------------------|--
A|---------------------|--
E|---------------------|--
http://www.guitartabcreator.com
Guitar Tab Creator is intended to store guitar tab created through the tool. It currently does not support in-line text editing. Any text you place in here will be lost. If you need to comment on your tab, please use the "Tab Notes" section located below.