let me be solo 2

(/) Slide Up  (\) Slide Down  (h) Hammer On  (p) Pull Off  (b) Bend (r) Release (v) Vibrato


E|-----------------------------------------|----------------------------------------|--
B|-------8--10b12--8-----------------------|--5--4--2--0----------------------------|--
G|--7h9---------------9--7h9p7--5----------|--------------4--2--1-------------------|--
D|---------------------------------7--5h7--|-----------------------4--2-------------|--
A|-----------------------------------------|-----------------------------1--0/5--3--|--
E|-----------------------------------------|----------------------------------------|--



E|--4p0--0--5p0--0--7p0--0--5p0--0--7p0--9p0--11p0--0--9p0--0--11p0--0--12v--|--
B|---------------------------------------------------------------------------|--
G|---------------------------------------------------------------------------|--
D|---------------------------------------------------------------------------|--
A|---------------------------------------------------------------------------|--
E|---------------------------------------------------------------------------|--



E|--12--------------------------------------------------|--
B|------15--12---------15-------------15h17p15--13------|--
G|--------------14b16------16r14--------------------14--|--
D|--------------------------------14--------------------|--
A|------------------------------------------------------|--
E|------------------------------------------------------|--



E|------------------------------------------------------------------------------------|--
B|-----7-----8-----10-----8-----7-----8-----10-----8-----7-----8-----10-----8-----8v--|--
G|--7-----7-----7------7-----7-----7-----7------7-----7-----7-----7------7-----7------|--
D|------------------------------------------------------------------------------------|--
A|------------------------------------------------------------------------------------|--
E|------------------------------------------------------------------------------------|--



E|-----------------------------------------|--
B|--8b10--8p7------------------------------|--
G|-------------9--7--5-------------12--16--|--
D|----------------------7--12--14----------|--
A|-----------------------------------------|--
E|-----------------------------------------|--
http://www.guitartabcreator.com
Guitar Tab Creator is intended to store guitar tab created through the tool. It currently does not support in-line text editing. Any text you place in here will be lost. If you need to comment on your tab, please use the "Tab Notes" section located below.