Let me be intro and verse and pc

(/) Slide Up  (\) Slide Down  (h) Hammer On  (p) Pull Off  (b) Bend (r) Release (v) Vibrato


E|--------------|--------------|--------------|-------------------|--
B|--------------|--------------|--------------|-------------------|--
G|-----------2--|--7--7--6--5--|-----------2--|--7--7--6--5--5/7--|--
D|--2--2-----2--|--7--7--6--5--|--2--2-----2--|--7--7--6--5--5/7--|--
A|--2--2-----0--|--5--5--4--3--|--2--2-----0--|--5--5--4--3--3/5--|--
E|--0--0--3-----|--------------|--0--0--3-----|-------------------|--

E|--------------|-------------------|--------------|-----------------|--
B|--------------|-------------------|--------------|-----------------|--
G|-----------2--|--7--7--6--5--5/7--|-----------2--|--7--7--7--6--5--|--
D|--2--2-----2--|--7--7--6--5--5/7--|--2--2-----2--|--7--7--7--6--5--|--
A|--2--2-----0--|--5--5--4--3--3/5--|--2--2-----0--|--5--5--5--4--3--|--
E|--0--0--3-----|-------------------|--0--0--3-----|-----------------|--

E|--------------|--------------|--------------|--------------|--
B|--------------|--------------|--------------|--------------|--
G|-----------2--|-----------2--|-----------2--|--7--7--6--5--|--
D|--2--2-----2--|--2--2-----2--|--2--2-----2--|--7--7--6--5--|--
A|--2--2-----0--|--2--2-----0--|--2--2-----0--|--5--5--4--3--|--
E|--0--0--3-----|--0--0--3-----|--0--0--3-----|--------------|--



E|-----------|-----------|-----------|-----------|--
B|-----------|-----------|-----------|-----------|--
G|--7--5--7--|--7--5--7--|--7--5--7--|--2--3--4--|--
D|--7--5--7--|--7--5--7--|--7--5--7--|--2--3--4--|--
A|--5--3--5--|--5--3--5--|--5--3--5--|--0--1--2--|--
E|-----------|-----------|-----------|-----------|--
http://www.guitartabcreator.com
Guitar Tab Creator is intended to store guitar tab created through the tool. It currently does not support in-line text editing. Any text you place in here will be lost. If you need to comment on your tab, please use the "Tab Notes" section located below.