let me be chorus

(/) Slide Up  (\) Slide Down  (h) Hammer On  (p) Pull Off  (b) Bend (r) Release (v) Vibrato


E|----------------|------------|----------------|-----------|--
B|----------3--3--|------------|----------3--3--|-----------|--
G|----------2--2--|--2--2------|----------2--2--|--2--3--4--|--
D|--2--2----0--0--|--2--2------|--2--2----0--0--|--2--3--4--|--
A|--2--2----------|--0--0------|--2--2----------|--0--1--2--|--
E|--0--0----------|------------|--0--0----------|-----------|--



E|----------------------------------|----------------------------------|--
B|--17------17------19------19------|--17------17------17------17------|--
G|------16------16------16------16--|------16------16------16------16--|--
D|----------------------------------|----------------------------------|--
A|----------------------------------|----------------------------------|--
E|----------------------------------|----------------------------------|--



E|--
B|--
G|--
D|--
A|--
E|--
http://www.guitartabcreator.com
Guitar Tab Creator is intended to store guitar tab created through the tool. It currently does not support in-line text editing. Any text you place in here will be lost. If you need to comment on your tab, please use the "Tab Notes" section located below.