Let me be 90%

Intro
E|--------------|--------------|--------------|-------------------|
B|--------------|--------------|--------------|-------------------|
G|-----------2--|--7--7--6--5--|-----------2--|--7--7--6--5--5/7--|
D|--2--2-----2--|--7--7--6--5--|--2--2-----2--|--7--7--6--5--5/7--|
A|--2--2-----0--|--5--5--4--3--|--2--2-----0--|--5--5--4--3--3/5--|
E|--0--0--3-----|--------------|--0--0--3-----|-------------------|

E|--------------|-------------------|--------------|-----------------|
B|--------------|-------------------|--------------|-----------------|
G|-----------2--|--7--7--6--5--5/7--|-----------2--|--7--7--7--6--5--|
D|--2--2-----2--|--7--7--6--5--5/7--|--2--2-----2--|--7--7--7--6--5--|
A|--2--2-----0--|--5--5--4--3--3/5--|--2--2-----0--|--5--5--5--4--3--|
E|--0--0--3-----|-------------------|--0--0--3-----|-----------------|

Verse 1
E|--------------|--------------|--------------|----------------|
B|--------------|--------------|--------------|----------------|
G|-----------2--|-----------2--|-----------2--|--7--7--6--5/7--|
D|--2--2-----2--|--2--2-----2--|--2--2-----2--|--7--7--6--5/7--|
A|--2--2-----0--|--2--2-----0--|--2--2-----0--|--5--5--4--3/5--|
E|--0--0--3-----|--0--0--3-----|--0--0--3-----|----------------| X2

Pre Chorus 1
E|-----------|-----------|-----------|-----------|
B|-----------|-----------|-----------|-----------|
G|--7--5--7--|--7--5--7--|--7--5--7--|--2--3--4--|
D|--7--5--7--|--7--5--7--|--7--5--7--|--2--3--4--|
A|--5--3--5--|--5--3--5--|--5--3--5--|--0--1--2--|
E|-----------|-----------|-----------|-----------|

Chorus 1
E|----------------|------------|----------------|-----------|
B|----------3--3--|------------|----------3--3--|-----------|
G|----------2--2--|--2--2------|----------2--2--|--2--3--4--|
D|--2--2----0--0--|--2--2------|--2--2----0--0--|--2--3--4--|
A|--2--2----------|--0--0------|--2--2----------|--0--1--2--|
E|--0--0----------|------------|--0--0----------|-----------|

Chorus 1 Lead
E D A
E|----------------------------------|----------------------------------|
B|--17------17------19------19------|--17------17------17------17------|
G|------16------16------16------16--|------16------16------16------16--|
D|----------------------------------|----------------------------------|
A|----------------------------------|----------------------------------|
E|----------------------------------|----------------------------------|

E D A Bb B
E|----------------------------------|----------------------------------|
B|--17------17------19------19------|--17------17------17------17------|
G|------16------16------16------16--|------16------16------16------16--|
D|----------------------------------|----------------------------------|
A|----------------------------------|----------------------------------|
E|----------------------------------|----------------------------------|

Solo 1
E|-----------------------------------------------|------------------------------------------------|
B|---------12------------------------------------|---------12------------------------------15b17--|
G|--11b13------11b13--11--9--11b13--11--9--9h11--|--11b13------11b13--11--9--11b13--11--9---------|
D|-----------------------------------------------|------------------------------------------------|
A|-----------------------------------------------|------------------------------------------------|
E|-----------------------------------------------|------------------------------------------------|

Solo 1 Backing
E|--------------|-------------------|--------------|-----------------|
B|--------------|-------------------|--------------|-----------------|
G|-----------2--|--7--7--6--5--5/7--|-----------2--|--7--7--7--6--5--|
D|--2--2-----2--|--7--7--6--5--5/7--|--2--2-----2--|--7--7--7--6--5--|
A|--2--2-----0--|--5--5--4--3--3/5--|--2--2-----0--|--5--5--5--4--3--|
E|--0--0--3-----|-------------------|--0--0--3-----|-----------------|

Verse 2
E|--------------|--------------|--------------|----------------|
B|--------------|--------------|--------------|----------------|
G|-----------2--|-----------2--|-----------2--|--7--7--6--5/7--|
D|--2--2-----2--|--2--2-----2--|--2--2-----2--|--7--7--6--5/7--|
A|--2--2-----0--|--2--2-----0--|--2--2-----0--|--5--5--4--3/5--|
E|--0--0--3-----|--0--0--3-----|--0--0--3-----|----------------| X2

Pre Chorus 2
E|-----------|-----------|-----------|-----------|
B|-----------|-----------|-----------|-----------|
G|--7--5--7--|--7--5--7--|--7--5--7--|--2--3--4--|
D|--7--5--7--|--7--5--7--|--7--5--7--|--2--3--4--|
A|--5--3--5--|--5--3--5--|--5--3--5--|--0--1--2--|
E|-----------|-----------|-----------|-----------|

Chorus 2
E|----------------|------------|----------------|-----------|
B|----------3--3--|------------|----------3--3--|-----------|
G|----------2--2--|--2--2------|----------2--2--|--2--3--4--|
D|--2--2----0--0--|--2--2------|--2--2----0--0--|--2--3--4--|
A|--2--2----------|--0--0------|--2--2----------|--0--1--2--|
E|--0--0----------|------------|--0--0----------|-----------| X2

Chorus 2 Lead
E D A
E|----------------------------------|----------------------------------|
B|--17------17------19------19------|--17------17------17------17------|
G|------16------16------16------16--|------16------16------16------16--|
D|----------------------------------|----------------------------------|
A|----------------------------------|----------------------------------|
E|----------------------------------|----------------------------------|

E D A Bb B
E|----------------------------------|----------------------------------|
B|--17------17------19------19------|--17------17------17------17------|
G|------16------16------16------16--|------16------16------16------16--|
D|----------------------------------|----------------------------------|
A|----------------------------------|----------------------------------|
E|----------------------------------|----------------------------------| X2

Solo 2 Part One
E|-----------------------------------------|----------------------------------------|
B|-------8--10b12--8-----------------------|--5--4--2--0----------------------------|
G|--7h9---------------9--7h9p7--5----------|--------------4--2--1-------------------|
D|---------------------------------7--5h7--|-----------------------4--2-------------|
A|-----------------------------------------|-----------------------------1--0/5--3--|
E|-----------------------------------------|----------------------------------------|

E|--4p0--0--5p0--0--7p0--0--5p0--0--7p0--9p0--11p0--0--9p0--0--11p0--0--12v--|
B|---------------------------------------------------------------------------|
G|---------------------------------------------------------------------------|
D|---------------------------------------------------------------------------|
A|---------------------------------------------------------------------------|
E|---------------------------------------------------------------------------|

E|--12--------------------------------------------------|
B|------15--12---------15-------------15h17p15--13------|
G|--------------14b16------16r14--------------------14--|
D|--------------------------------14--------------------|
A|------------------------------------------------------|
E|------------------------------------------------------|

Solo 2 Part One Backing
E|--------------|-------------------|
B|--------------|-------------------|
G|-----------2--|--7--7--6--5--5/7--|
D|--2--2-----2--|--7--7--6--5--5/7--|
A|--2--2-----0--|--5--5--4--3--3/5--|
E|--0--0--3-----|-------------------| X4

Solo 2 Part Two
E|------------------------------------------------------------------------------------|
B|-----7-----8-----10-----8-----7-----8-----10-----8-----7-----8-----10-----8-----8v--|
G|--7-----7-----7------7-----7-----7-----7------7-----7-----7-----7------7-----7------|
D|------------------------------------------------------------------------------------|
A|------------------------------------------------------------------------------------|
E|------------------------------------------------------------------------------------|

E|-----------------------------------------|
B|--8b10--8p7------------------------------|
G|-------------9--7--5-------------12--16--|
D|----------------------7--12--14----------|
A|-----------------------------------------|
E|-----------------------------------------|

Solo 2 Part Two Backing
E|-----------|-----------|-----------|-----------|
B|-----------|-----------|-----------|-----------|
G|--7--5--7--|--7--5--7--|--7--5--7--|--2--3--4--|
D|--7--5--7--|--7--5--7--|--7--5--7--|--2--3--4--|
A|--5--3--5--|--5--3--5--|--5--3--5--|--0--1--2--|
E|-----------|-----------|-----------|-----------|

Solo 2 Part Three (Double Time)

E|-----------------------------------------------------------------------------|
B|-------5-------5-------5-------5-------5--7p5--------------------------------|
G|--5h6-----5h6-----5h6-----5h6-----5h6----------7p5--6p5----------------------|
D|---------------------------------------------------------7p5--------------7--|
A|--------------------------------------------------------------7--6--5--3-----|
E|-----------------------------------------------------------------------------|

E|----------------------------------------------------------------9--10--11--12--8------|
B|-------5-----7---------------------------------------10--12b14--------------------10--|
G|--5h6-----5-----5------------------------------9h11-----------------------------------|
D|------------------------7h9h10p9p7-----7h9/11-----------------------------------------|
A|-------------------7h9--------------9-------------------------------------------------|
E|--------------------------------------------------------------------------------------|

E|--8--9--10--11--12v--|
B|---------------------|
G|---------------------|
D|---------------------|
A|---------------------|
E|---------------------|
Guitar Tab Creator is intended to store guitar tab created through the tool. It currently does not support in-line text editing. Any text you place in here will be lost. If you need to comment on your tab, please use the "Tab Notes" section located below.