IYA Leads

(/) Slide Up  (\) Slide Down  (h) Hammer On  (p) Pull Off  (b) Bend (r) Release (v) Vibrato


E|--12p0--14p0--15p0--17p0--|--17b19--17p15--14--12--14--14p12--12---------12------------------|--
B|--------------------------|---------------------------------------15b17------15--12----------|--
G|--------------------------|----------------------------------------------------------14--12--|--
D|--------------------------|------------------------------------------------------------------|--
A|--------------------------|------------------------------------------------------------------|--
E|--------------------------|------------------------------------------------------------------|--



E|--17b19--17p15--14--15--17--17--15--15--|--17--15--14-------------------|--
B|----------------------------------------|--------------15--17--15--15v--|--
G|----------------------------------------|-------------------------------|--
D|----------------------------------------|-------------------------------|--
A|----------------------------------------|-------------------------------|--
E|----------------------------------------|-------------------------------|--



E|---------12-------------------------------------|-------------------------|--
B|--15b17------15p12------------------------------|--15b17--17--12--12------|--
G|--------------------14p12------12------12--14v--|---------------------14--|--
D|---------------------------14------14-----------|-------------------------|--
A|------------------------------------------------|-------------------------|--
E|------------------------------------------------|-------------------------|--



E|-------------|-------------------------------------10--12--|--12--|--
B|-------------|------------------------------10h12----------|------|--
G|--9--11--12--|---------------------9h11h12-----------------|------|--
D|-------------|------------9h11h12--------------------------|------|--
A|-------------|--10h12h14-----------------------------------|------|--
E|-------------|---------------------------------------------|------|--



E|--17--15--14----------------------|--17--15--14----------------------|--
B|--------------15--17--15--14------|--------------15--17--15--14------|--
G|------------------------------14--|------------------------------14--|--
D|----------------------------------|----------------------------------|--
A|----------------------------------|----------------------------------|--
E|----------------------------------|----------------------------------|--



E|--15--14--------------------------|--15--14--------------------------|--
B|----------15--14--17--15--14------|----------15--14--17--15--14------|--
G|------------------------------14--|------------------------------14--|--
D|----------------------------------|----------------------------------|--
A|----------------------------------|----------------------------------|--
E|----------------------------------|----------------------------------|--



E|--15--14--------------------------|-----------------14------15----------|--
B|----------15--14--17--15--14------|---------14--15------15------17--15--|--
G|------------------------------14--|--12/14------------------------------|--
D|----------------------------------|-------------------------------------|--
A|----------------------------------|-------------------------------------|--
E|----------------------------------|-------------------------------------|--
http://www.guitartabcreator.com
Guitar Tab Creator is intended to store guitar tab created through the tool. It currently does not support in-line text editing. Any text you place in here will be lost. If you need to comment on your tab, please use the "Tab Notes" section located below.