IYA 75% done

Intro (One Guitar only)
E|---------------------------|
B|-----10--------------------|
G|---------9--7--6--7--9--7--|
D|--7------------------------|
A|---------------------------|
E|---------------------------| X4

Intro Continued (Lead)
E|---------------------------|
B|-----10--------------------|
G|---------9--7--6--7--9--7--|
D|--7------------------------|
A|---------------------------|
E|---------------------------| X8

Intro Continued (Backing)
E|-----|-----|-----|-----|
B|--3--|-----|-----|-----|
G|--2--|--4--|--2--|-----|
D|--0--|--4--|--2--|--5--|
A|-----|--2--|--0--|--5--|
E|-----|-----|-----|--3--|

Verse 1 (Lead)
E|-----|-----|-----|------|-----|-----|-----|-------------|
B|-----|-----|-----|------|-----|-----|-----|-------------|
G|-----|--7--|-----|------|-----|--7--|-----|-------------|
D|--7--|-----|--7--|------|--7--|-----|--7--|-------------|
A|-----|-----|-----|--10--|-----|-----|-----|--10--10--9--|
E|-----|-----|-----|------|-----|-----|-----|-------------|

Verse 1 (Backing)
E|-----|-----|-----|-----|-----|-----|-----|-----------|
B|--3--|-----|-----|-----|--3--|-----|-----|-----------|
G|--2--|--4--|--2--|-----|--2--|--4--|--2--|-----------|
D|--0--|--4--|--2--|--5--|--0--|--4--|--2--|--5--------|
A|-----|--2--|--0--|--5--|-----|--2--|--0--|--5--------|
E|-----|-----|-----|--3--|-----|-----|-----|--3--3--2--|

Pre Chorus 1 (Lead)
E G D D E G A A
E|-----|--3--|-----|--5--3--2--|-----2--3--|-----2--3--|-----|-----|
B|-----|--3--|--3--|-----------|--5--------|--3--------|--5--|--5--|
G|-----|--0--|--2--|-----------|-----------|-----------|-----|-----|
D|--2--|--0--|--0--|-----------|-----------|-----------|-----|-----|
A|--2--|--2--|-----|-----------|-----------|-----------|-----|-----|
E|--0--|--3--|-----|-----------|-----------|-----------|-----|-----| (Pause)

Pre Chorus 1 (Backing)
E G D D E G A A
E|-----|--3--|-----|-----|-----|--3--|-----|-----|
B|-----|--3--|--3--|--3--|-----|--3--|-----|-----|
G|-----|--0--|--2--|--2--|-----|--0--|--2--|--2--|
D|--2--|--0--|--0--|--0--|--2--|--0--|--2--|--2--|
A|--2--|--2--|-----|-----|--2--|--2--|--0--|--0--|
E|--0--|--3--|-----|-----|--0--|--3--|-----|-----| (Pause)

Chorus 1
E|-----|--3--------|-----------|--3--|-----|
B|--3--|--3--------|-----------|--3--|-----|
G|--2--|--0--------|-----------|--0--|--2--|
D|--0--|--0--------|--2--------|--0--|--2--|
A|-----|--2--------|--2--------|--2--|--0--|
E|-----|--3--3--2--|--0--0--2--|--3--|-----| X2 (Pause)

Break (One Guitar)
E|-----|
B|--3--|
G|--2--|
D|--0--|
A|-----|
E|-----|

Verse 2 (Lead)
E|-----|-----|-----|------|
B|-----|-----|-----|------|
G|-----|--7--|-----|------|
D|--7--|-----|--7--|------|
A|-----|-----|-----|--10--|
E|-----|-----|-----|------|

E|---------------------------|
B|-----10--------------------|
G|---------9--7--6--7--9--7--|
D|--7------------------------|
A|---------------------------|
E|---------------------------| X7

E|---------------------|
B|-----10--------8--7--|
G|---------9--7--------|
D|--7------------------|
A|---------------------|
E|---------------------|

Verse 2 (Backing)
E|-----|-----|-----|-----|-----|-----|-----|-----------|
B|--3--|-----|-----|-----|--3--|-----|-----|-----------|
G|--2--|--4--|--2--|-----|--2--|--4--|--2--|-----------|
D|--0--|--4--|--2--|--5--|--0--|--4--|--2--|--5--------|
A|-----|--2--|--0--|--5--|-----|--2--|--0--|--5--------|
E|-----|-----|-----|--3--|-----|-----|-----|--3--3--2--|

Pre Chorus 2 (Lead)
E G D D E G A A
E|----------------|-----|--5--3--2--|-----2--3--|-----2--3--|-----|-----|
B|----------------|-----|-----------|--5--------|--3--------|--5--|--5--|
G|--9--9--11--12--|--7--|-----------|-----------|-----------|-----|-----|
D|----------------|-----|-----------|-----------|-----------|-----|-----|
A|----------------|-----|-----------|-----------|-----------|-----|-----|
E|----------------|-----|-----------|-----------|-----------|-----|-----| (Pause)

Pre Chorus 2 (Backing)
E G D D E G A A
E|-----|--3--|-----|-----|-----|--3--|-----|-----|
B|-----|--3--|--3--|--3--|-----|--3--|-----|-----|
G|-----|--0--|--2--|--2--|-----|--0--|--2--|--2--|
D|--2--|--0--|--0--|--0--|--2--|--0--|--2--|--2--|
A|--2--|--2--|-----|-----|--2--|--2--|--0--|--0--|
E|--0--|--3--|-----|-----|--0--|--3--|-----|-----| (Pause)

Chorus 2 (Lead)
D G E G A A
E|--5--3--2--3--2-----|--5--3--2--3--2-----|-----2--3--|-----2--3-----|-----7-----5-----3-----2-----
B|-----------------3--|-----------------3--|--5--------|--3--------5--|--5-----5-----5-----5-----5--
G|--------------------|--------------------|-----------|--------------|-----------------------------
D|--------------------|--------------------|-----------|--------------|-----------------------------
A|--------------------|--------------------|-----------|--------------|-----------------------------
E|--------------------|--------------------|-----------|--------------|-----------------------------

D G E G A
E|--5--3--2--3--2-----|--5--3--2--3--2-----|-----2--3--|-----2--3-----|
B|-----------------3--|-----------------3--|--5--------|--3--------5--|
G|--------------------|--------------------|-----------|--------------|
D|--------------------|--------------------|-----------|--------------|
A|--------------------|--------------------|-----------|--------------|
E|--------------------|--------------------|-----------|--------------|

Chorus 2 (Backing)
E|-----|--3--------|-----------|--3--|-----|
B|--3--|--3--------|-----------|--3--|-----|
G|--2--|--0--------|-----------|--0--|--2--|
D|--0--|--0--------|--2--------|--0--|--2--|
A|-----|--2--------|--2--------|--2--|--0--|
E|-----|--3--3--2--|--0--0--2--|--3--|-----| X2

Middle 8 (Guitar One)
E|--------------|--------------|--3-----------|--------------|
B|--------------|--------------|--3-----------|--------------|
G|--4-----------|--2-----------|--0-----------|--2-----------|
D|--4-----------|--2-----------|--0-----------|--2-----------|
A|--2--4--5--4--|--0--4--5--4--|--2--4--5--4--|--0--4--5--4--|
E|--------------|--------------|--3-----------|--------------|

E|--------------|--------------|--3-----------|--------------|
B|--------------|--------------|--3-----------|--------------|
G|--4-----------|--2-----------|--0-----------|--2-----------|
D|--4-----------|--2-----------|--0-----------|--2-----------|
A|--2--4--5--4--|--0--4--5--4--|--2--4--5--4--|--0-----------|
E|--------------|--------------|--3-----------|--------------|

Middle 8 (Harmony)

E|--------------|--------------|--3-----------|--------------|
B|--------------|--------------|--3-----------|--------------|
G|--4-----------|--2-----------|--0-----------|--2-----------|
D|--4-----------|--2-----------|--0-----------|--2--2--4--2--|
A|--2--4--5--4--|--0--4--5--4--|--2--4--5--4--|--0-----------|
E|--------------|--------------|--3-----------|--------------|

E|--------------|--------------|--3-----------|--------------|
B|--------------|--------------|--3-----------|--------------|
G|--4-----------|--2-----------|--0-----------|--2-----------|
D|--4--2--4--2--|--2--2--4--2--|--0--2--4--2--|--2-----------|
A|--2-----------|--0-----------|--2-----------|--0-----------|
E|--------------|--------------|--3-----------|--------------|
Guitar Tab Creator is intended to store guitar tab created through the tool. It currently does not support in-line text editing. Any text you place in here will be lost. If you need to comment on your tab, please use the "Tab Notes" section located below.