Girls first bit

(/) Slide Up  (\) Slide Down  (h) Hammer On  (p) Pull Off  (b) Bend (r) Release (v) Vibrato


E|-----------|-----------|---------|--
B|-----------|-----------|---------|--
G|--5--5--5--|-----------|--9--10--|--
D|--5--5--5--|--5--5--5--|--9--10--|--
A|--3--3--3--|--5--5--5--|--7--8---|--
E|-----------|--3--3--3--|---------|--



E|--------------|--------------|----------------------|--------------|--------------|--------------|
B|--------3-----|--------3-----|----------------------|--------3-----|--------3-----|--------------|
G|-----5-----5--|-----4-----4--|-----2--4--5----5--4--|-----5-----5--|-----4-----4--|-----2--4--5--|
D|--5-----------|--5-----------|--2-------------------|--5-----------|--5-----------|--2-----------|
A|--------------|--------------|----------------------|--------------|--------------|--------------|
E|--------------|--------------|----------------------|--------------|--------------|--------------|



E|-----------|-----------|---------|--
B|-----------|-----------|--9------|--
G|-----------|-----------|--9--10--|--
D|--7--7--7--|--5--5--5--|--9--10--|--
A|--7--7--7--|--5--5--5--|--7--8---|--
E|--5--5--5--|--3--3--3--|---------|--



E|--------|--------|-----|-----|--------|--------|-----|-----|--
B|--------|--------|-----|-----|--------|--------|-----|-----|--
G|--3--3--|--------|--5--|--5--|--3--3--|--------|-----|-----|--
D|--3--3--|--3--3--|--5--|--5--|--3--3--|--3--3--|--5--|--5--|--
A|--1--1--|--3--3--|--3--|--3--|--1--1--|--3--3--|--5--|--5--|--
E|--------|--1--1--|-----|-----|--------|--1--1--|--3--|--3--|--



E|------|-----|-----|-----|--
B|------|-----|-----|-----|--
G|--10--|--5--|-----|-----|--
D|--10--|--5--|--5--|--5--|--
A|--8---|--3--|--5--|--5--|--
E|------|-----|--3--|--3--|--



E|------|-----|--
B|------|-----|--
G|--10--|-----|--
D|--10--|--5--|--
A|--8---|--5--|--
E|------|--3--|--
http://www.guitartabcreator.com
Guitar Tab Creator is intended to store guitar tab created through the tool. It currently does not support in-line text editing. Any text you place in here will be lost. If you need to comment on your tab, please use the "Tab Notes" section located below.