Girls Done

Intro
E|-----------|-----------|---------|
B|-----------|-----------|---------|
G|--5--5--5--|-----------|--9--10--|
D|--5--5--5--|--5--5--5--|--9--10--|
A|--3--3--3--|--5--5--5--|--7--8---|
E|-----------|--3--3--3--|---------| X2

Intro Lead
C G E F C G E F
E|--------------|--------------|----------------------|--------------|--------------|--------------|
B|--------3-----|--------3-----|----------------------|--------3-----|--------3-----|--------------|
G|-----5-----5--|-----4-----4--|-----2--4--5----5--4--|-----5-----5--|-----4-----4--|-----2--4--5--|
D|--5-----------|--5-----------|--2-------------------|--5-----------|--5-----------|--2-----------|
A|--------------|--------------|----------------------|--------------|--------------|--------------|
E|--------------|--------------|----------------------|--------------|--------------|--------------|

Verse 1
E|-----------|-----------|---------|
B|-----------|-----------|---------|
G|--5--5--5--|-----------|--9--10--|
D|--5--5--5--|--5--5--5--|--9--10--|
A|--3--3--3--|--5--5--5--|--7--8---|
E|-----------|--3--3--3--|---------| X3

Verse 1 Continued Guitar One
A G E F
E|--------------|--------------|--------------|
B|--------5-----|--------3-----|--------------|
G|-----5-----5--|-----4-----4--|-----2--4--5--|
D|--7-----------|--5-----------|--2-----------|
A|--------------|--------------|--------------|
E|--------------|--------------|--------------|

Verse 1 Continued Guitar Two
E|-----------|-----------|---------|
B|-----------|-----------|--9------|
G|-----------|-----------|--9--10--|
D|--7--7--7--|--5--5--5--|--9--10--|
A|--7--7--7--|--5--5--5--|--7--8---|
E|--5--5--5--|--3--3--3--|---------|

Pre Chorus 1
E|--------|--------|-----|-----|--------|--------|-----|-----|
B|--------|--------|-----|-----|--------|--------|-----|-----|
G|--3--3--|--------|--5--|--5--|--3--3--|--------|-----|-----|
D|--3--3--|--3--3--|--5--|--5--|--3--3--|--3--3--|--5--|--5--|
A|--1--1--|--3--3--|--3--|--3--|--1--1--|--3--3--|--5--|--5--|
E|--------|--1--1--|-----|-----|--------|--1--1--|--3--|--3--|

Chorus 1
E|------|-----|-----|-----|
B|------|-----|-----|-----|
G|--10--|--5--|-----|-----|
D|--10--|--5--|--5--|--5--|
A|--8---|--3--|--5--|--5--|
E|------|-----|--3--|--3--| X3

E|------|-----|
B|------|-----|
G|--10--|-----|
D|--10--|--5--|
A|--8---|--5--|
E|------|--3--| (Pause)

Break
E|-----------|-----------|---------|
B|-----------|-----------|---------|
G|--5--5--5--|-----------|--9--10--|
D|--5--5--5--|--5--5--5--|--9--10--|
A|--3--3--3--|--5--5--5--|--7--8---|
E|-----------|--3--3--3--|---------|

Break Lead
C G E F
E|--------------|--------------|--------------|
B|--------3-----|--------3-----|--------------|
G|-----5-----5--|-----4-----4--|-----2--4--5--|
D|--5-----------|--5-----------|--2-----------|
A|--------------|--------------|--------------|
E|--------------|--------------|--------------|

Verse 2 Lead
E|--------------------|----------------------|-------------------------|
B|--------------------|----------------------|-------------------------|
G|--5----7b9b5-----5--|-----2--4--5----5--4--|--5----4--5--7--5--------|
D|--------------7-----|--2-------------------|-------------------7--5--|
A|--------------------|----------------------|-------------------------|
E|--------------------|----------------------|-------------------------|

Verse 2
E|-----------|-----------|---------|
B|-----------|-----------|---------|
G|--5--5--5--|-----------|--9--10--|
D|--5--5--5--|--5--5--5--|--9--10--|
A|--3--3--3--|--5--5--5--|--7--8---|
E|-----------|--3--3--3--|---------| X3

Verse 2 Continued Guitar One
A G E F
E|--------------|--------------|--------------|
B|--------5-----|--------3-----|--------------|
G|-----5-----5--|-----4-----4--|-----2--4--5--|
D|--7-----------|--5-----------|--2-----------|
A|--------------|--------------|--------------|
E|--------------|--------------|--------------|

Verse 2 Continued Guitar Two
E|-----------|-----------|---------|
B|-----------|-----------|--9------|
G|-----------|-----------|--9--10--|
D|--7--7--7--|--5--5--5--|--9--10--|
A|--7--7--7--|--5--5--5--|--7--8---|
E|--5--5--5--|--3--3--3--|---------|

Pre Chorus 2
E|--------|--------|-----|-----|--------|--------|-----|-----|
B|--------|--------|-----|-----|--------|--------|-----|-----|
G|--3--3--|--------|--5--|--5--|--3--3--|--------|-----|-----|
D|--3--3--|--3--3--|--5--|--5--|--3--3--|--3--3--|--5--|--5--|
A|--1--1--|--3--3--|--3--|--3--|--1--1--|--3--3--|--5--|--5--|
E|--------|--1--1--|-----|-----|--------|--1--1--|--3--|--3--|

Chorus 2
E|------|-----|-----|-----|
B|------|-----|-----|-----|
G|--10--|--5--|-----|-----|
D|--10--|--5--|--5--|--5--|
A|--8---|--3--|--5--|--5--|
E|------|-----|--3--|--3--| X3

E|------|-----|
B|------|-----|
G|--10--|-----|
D|--10--|--5--|
A|--8---|--5--|
E|------|--3--|

Solo (Build in, Last Note of Chorus 2)
G
E|--------------------------|
B|--------------------------|
G|----------------9------9--|
D|---------10h12-----12-----|
A|--10h12-------------------|
E|--------------------------|

Solo Continued
E|------------------------|-------------|--------------------------------|
B|---------10-------------|-------------|-------------10---------10--13--|
G|--12b14------14--10h12--|--9----------|--12b14--14------12b14----------|
D|------------------------|-----12--10--|--------------------------------|
A|------------------------|-------------|--------------------------------|
E|------------------------|-------------|--------------------------------|

E|--12----------------------------------------------|----------------------------------|------|
B|------15--13--13--12--10--8--10h12h13--12--10--8--|--10--12--13--12--13--15--17--20--|--18--|
G|--------------------------------------------------|----------------------------------|------|
D|--------------------------------------------------|----------------------------------|------|
A|--------------------------------------------------|----------------------------------|------|
E|--------------------------------------------------|----------------------------------|------|

Solo Backing
E|-----|-----|------|------|-----|-----|------|------|
B|-----|-----|------|------|-----|-----|------|------|
G|-----|-----|--10--|--10--|-----|-----|--10--|--10--|
D|--7--|--5--|--10--|--10--|--7--|--5--|--10--|--10--|
A|--7--|--5--|--8---|--8---|--7--|--5--|--8---|--8---|
E|--5--|--3--|------|------|--5--|--3--|------|------|

E|-----|------|-----|-----|-----|------|-----|-----|
B|-----|------|-----|-----|-----|------|-----|-----|
G|--9--|--10--|--5--|--5--|--9--|--10--|-----|-----|
D|--9--|--10--|--5--|--5--|--9--|--10--|--5--|--5--|
A|--7--|--8---|--3--|--3--|--7--|--8---|--5--|--5--|
E|-----|------|-----|-----|-----|------|--3--|--3--|

Pre Chorus 3 (Played Straight, no stabs)
E|-----|-----|-----|-----|-----|-----|-----|-----|
B|-----|-----|-----|-----|-----|-----|-----|-----|
G|--3--|-----|--5--|--5--|--3--|-----|-----|-----|
D|--3--|--3--|--5--|--5--|--3--|--3--|--5--|--5--|
A|--1--|--3--|--3--|--3--|--1--|--3--|--5--|--5--|
E|-----|--1--|-----|-----|-----|--1--|--3--|--3--|

Chorus 3 (With Stabs)
E|----------|--------|-----|-----|
B|----------|--------|-----|-----|
G|--10--10--|--5--5--|-----|-----|
D|--10--10--|--5--5--|--5--|--5--|
A|--8---8---|--3--3--|--5--|--5--|
E|----------|--------|--3--|--3--|

E|------|-----|-----|-----|
B|------|-----|-----|-----|
G|--10--|--5--|-----|-----|
D|--10--|--5--|--5--|--5--|
A|--8---|--3--|--5--|--5--|
E|------|-----|--3--|--3--| X2

E|------|-----|
B|------|-----|
G|--10--|-----|
D|--10--|--5--|
A|--8---|--5--|
E|------|--3--| (Pause)

Outro
E|-----------|-----------|---------|
B|-----------|-----------|---------|
G|--5--5--5--|-----------|--9--10--|
D|--5--5--5--|--5--5--5--|--9--10--|
A|--3--3--3--|--5--5--5--|--7--8---|
E|-----------|--3--3--3--|---------| X2

Outro Lead
C G E F C G E F
E|--------------|--------------|----------------------|--------------|--------------|--------------|
B|--------3-----|--------3-----|----------------------|--------3-----|--------3-----|--------------|
G|-----5-----5--|-----4-----4--|-----2--4--5----5--4--|-----5-----5--|-----4-----4--|-----2--4--5--|
D|--5-----------|--5-----------|--2-------------------|--5-----------|--5-----------|--2-----------|
A|--------------|--------------|----------------------|--------------|--------------|--------------|
E|--------------|--------------|----------------------|--------------|--------------|--------------|

End
E|--------|
B|--------|
G|--5--5--|
D|--5--5--|
A|--3--3--|
E|--------|
Guitar Tab Creator is intended to store guitar tab created through the tool. It currently does not support in-line text editing. Any text you place in here will be lost. If you need to comment on your tab, please use the "Tab Notes" section located below.