Crybaby

CRYBABY

Intro
E|--------------------|--------------------|--------------------|--2--3--|
B|--------------------|--------------------|--------------------|--3--3--|
G|--2--2-----------2--|--2--2-----------2--|--2--2-----------2--|--2--0--|
D|--2--2-----------2--|--2--2-----------2--|--2--2-----------2--|--0--0--|
A|--0--0--3--0-----0--|--0--0--3--0-----0--|--0--0--3--0-----0--|--0--2--|
E|--------------3-----|--------------3-----|--------------3-----|-----3--|

E|--------------------|--------------------|--------------------|--2--3--|
B|--------------------|--------------------|--------------------|--3--3--|
G|--2--2-----------2--|--2--2-----------2--|--2--2-----------2--|--2--0--|
D|--2--2-----------2--|--2--2-----------2--|--2--2-----------2--|--0--0--|
A|--0--0--3--0-----0--|--0--0--3--0-----0--|--0--0--3--0-----0--|--0--2--|
E|--------------3-----|--------------3-----|--------------3-----|-----3--|

E|--------------------|--------------------|--------------------|--2--3--|
B|--------------------|--------------------|--------------------|--3--3--|
G|--2--2-----------2--|--2--2-----------2--|--2--2-----------2--|--2--0--|
D|--2--2-----------2--|--2--2-----------2--|--2--2-----------2--|--0--0--|
A|--0--0--3--0-----0--|--0--0--3--0-----0--|--0--0--3--0-----0--|--0--2--|
E|--------------3-----|--------------3-----|--------------3-----|-----3--|

E|--------------------|--------------------|--------------------|--2--3--|
B|--------------------|--------------------|--------------------|--3--3--|
G|--2--2-----------2--|--2--2-----------2--|--2--2-----------2--|--2--0--|
D|--2--2-----------2--|--2--2-----------2--|--2--2-----------2--|--0--0--|
A|--0--0--3--0-----0--|--0--0--3--0-----0--|--0--0--3--0-----0--|--0--2--|
E|--------------3-----|--------------3-----|--------------3-----|-----3--|

Verse
E|--------------------|--------------------|--------------------|--2--3--|
B|--------------------|--------------------|--------------------|--3--3--|
G|--2--2-----------2--|--2--2-----------2--|--2--2-----------2--|--2--0--|
D|--2--2-----------2--|--2--2-----------2--|--2--2-----------2--|--0--0--|
A|--0--0--3--0-----0--|--0--0--3--0-----0--|--0--0--3--0-----0--|--0--2--|
E|--------------3-----|--------------3-----|--------------3-----|-----3--|

E|--------------------|--------------------|--------------------|--2--3--|
B|--------------------|--------------------|--------------------|--3--3--|
G|--2--2-----------2--|--2--2-----------2--|--2--2-----------2--|--2--0--|
D|--2--2-----------2--|--2--2-----------2--|--2--2-----------2--|--0--0--|
A|--0--0--3--0-----0--|--0--0--3--0-----0--|--0--0--3--0-----0--|--0--2--|
E|--------------3-----|--------------3-----|--------------3-----|-----3--|

E|--------------------|--------------------|--------------------|--2--3--|
B|--------------------|--------------------|--------------------|--3--3--|
G|--2--2-----------2--|--2--2-----------2--|--2--2-----------2--|--2--0--|
D|--2--2-----------2--|--2--2-----------2--|--2--2-----------2--|--0--0--|
A|--0--0--3--0-----0--|--0--0--3--0-----0--|--0--0--3--0-----0--|--0--2--|
E|--------------3-----|--------------3-----|--------------3-----|-----3--|

E|--------------------|--------------------|--------------------|--2--3--|
B|--------------------|--------------------|--------------------|--3--3--|
G|--2--2-----------2--|--2--2-----------2--|--2--2-----------2--|--2--0--|
D|--2--2-----------2--|--2--2-----------2--|--2--2-----------2--|--0--0--|
A|--0--0--3--0-----0--|--0--0--3--0-----0--|--0--0--3--0-----0--|--0--2--|
E|--------------3-----|--------------3-----|--------------3-----|-----3--|

Chorus
E|--------3--------|--------3--------|--------3--------|--------2--|
B|--------3--------|--------3--------|--------3--------|--------3--|
G|--2--2--0--------|--2--2--0--------|--2--2--0--------|--2--2--2--|
D|--2--2--0--------|--2--2--0--------|--2--2--0--------|--2--0--0--|
A|--0--0--2--------|--0--0--2--------|--0--0--2--------|--0--0--0--|
E|--------3--0--3--|--------3--0--3--|--------3--0--3--|-----------|

Solo 1 (Backing under solo - main riff played twice)
E|----------------|----------------|----------------|--------|
B|----------------|----------------|----------------|--------|
G|--2--5p2-----2--|--2--5p2-----2--|--2--5p2-----2--|--7-----|
D|----------5-----|----------5-----|----------5-----|-----5--|
A|----------------|----------------|----------------|--------|
E|----------------|----------------|----------------|--------|

E|----------------|----------------|----------------|--------|------|
B|----------------|----------------|----------------|--------|------|
G|--2--5p2-----2--|--2--5p2-----2--|--2--5p2-----2--|--7-----|--2v--|
D|----------5-----|----------5-----|----------5-----|-----5--|------|
A|----------------|----------------|----------------|--------|------|
E|----------------|----------------|----------------|--------|------|

Verse 2
E|--------------------|--------------------|--------------------|--2--3--|
B|--------------------|--------------------|--------------------|--3--3--|
G|--2--2-----------2--|--2--2-----------2--|--2--2-----------2--|--2--0--|
D|--2--2-----------2--|--2--2-----------2--|--2--2-----------2--|--0--0--|
A|--0--0--3--0-----0--|--0--0--3--0-----0--|--0--0--3--0-----0--|--0--2--|
E|--------------3-----|--------------3-----|--------------3-----|-----3--|

E|--------------------|--------------------|--------------------|--2--3--|
B|--------------------|--------------------|--------------------|--3--3--|
G|--2--2-----------2--|--2--2-----------2--|--2--2-----------2--|--2--0--|
D|--2--2-----------2--|--2--2-----------2--|--2--2-----------2--|--0--0--|
A|--0--0--3--0-----0--|--0--0--3--0-----0--|--0--0--3--0-----0--|--0--2--|
E|--------------3-----|--------------3-----|--------------3-----|-----3--|

E|--------------------|--------------------|--------------------|--2--3--|
B|--------------------|--------------------|--------------------|--3--3--|
G|--2--2-----------2--|--2--2-----------2--|--2--2-----------2--|--2--0--|
D|--2--2-----------2--|--2--2-----------2--|--2--2-----------2--|--0--0--|
A|--0--0--3--0-----0--|--0--0--3--0-----0--|--0--0--3--0-----0--|--0--2--|
E|--------------3-----|--------------3-----|--------------3-----|-----3--|

E|--------------------|--------------------|--------------------|--2--3--|
B|--------------------|--------------------|--------------------|--3--3--|
G|--2--2-----------2--|--2--2-----------2--|--2--2-----------2--|--2--0--|
D|--2--2-----------2--|--2--2-----------2--|--2--2-----------2--|--0--0--|
A|--0--0--3--0-----0--|--0--0--3--0-----0--|--0--0--3--0-----0--|--0--2--|
E|--------------3-----|--------------3-----|--------------3-----|-----3--|

Chorus 2
E|--------3--------|--------3--------|--------3--------|--------2--|
B|--------3--------|--------3--------|--------3--------|--------3--|
G|--2--2--0--------|--2--2--0--------|--2--2--0--------|--2--2--2--|
D|--2--2--0--------|--2--2--0--------|--2--2--0--------|--2--0--0--|
A|--0--0--2--------|--0--0--2--------|--0--0--2--------|--0--0--0--|
E|--------3--0--3--|--------3--0--3--|--------3--0--3--|-----------|

Solo 2 (Part 1) (Backing guitar plays Chorus)
E|--------------|---------------|-------------------------|
B|--------------|---------------|-------------------------|
G|--7b9--7b9r7--|--7b9r7--5--4--|--5b7--5b7--7--5--4--2v--|
D|--------------|---------------|-------------------------|
A|--------------|---------------|-------------------------|
E|--------------|---------------|-------------------------|

E|-------------------|--------------------|---------------------------------|
B|--15b17--15b17r15--|--15b17r15--13--12--|--13b15--13b15--15--13--12--10v--|
G|-------------------|--------------------|---------------------------------|
D|-------------------|--------------------|---------------------------------|
A|-------------------|--------------------|---------------------------------|
E|-------------------|--------------------|---------------------------------|

Solo 2 (Part 2) (Backing guitar plays route notes, mutted and chugged)
(A) (G)
E|------------------------|----------------------------|---------|
B|------------------------|----------------------------|---------|
G|--14--16p14--18p14--16--|--12--12--14p12--16p12--14--|--(12v)--|
D|------------------------|----------------------------|---------|
A|------------------------|----------------------------|---------|
E|------------------------|----------------------------|---------|
x4
Solo 2 Harmony (On last two times)
E|------------------------|----------------------------|---------|
B|--14--15p14--17p14--15--|--12--12--14p12--15p12--14--|--(12v)--|
G|------------------------|----------------------------|---------|
D|------------------------|----------------------------|---------|
A|------------------------|----------------------------|---------|
E|------------------------|----------------------------|---------|
x2
Breakdown
E|--------------------|--------------------|--------------------|--2--3--|
B|--------------------|--------------------|--------------------|--3--3--|
G|--2--2-----------2--|--2--2-----------2--|--2--2-----------2--|--2--0--|
D|--2--2-----------2--|--2--2-----------2--|--2--2-----------2--|--0--0--|
A|--0--0--3--0-----0--|--0--0--3--0-----0--|--0--0--3--0-----0--|--0--2--|
E|--------------3-----|--------------3-----|--------------3-----|-----3--|

E|--------------------|--------------------|--------------------|--2--3--|
B|--------------------|--------------------|--------------------|--3--3--|
G|--2--2-----------2--|--2--2-----------2--|--2--2-----------2--|--2--0--|
D|--2--2-----------2--|--2--2-----------2--|--2--2-----------2--|--0--0--|
A|--0--0--3--0-----0--|--0--0--3--0-----0--|--0--0--3--0-----0--|--0--2--|
E|--------------3-----|--------------3-----|--------------3-----|-----3--|

Chorus 3
E|--------3--------|--------3--------|--------3--------|--------2--|
B|--------3--------|--------3--------|--------3--------|--------3--|
G|--2--2--0--------|--2--2--0--------|--2--2--0--------|--2--2--2--|
D|--2--2--0--------|--2--2--0--------|--2--2--0--------|--2--0--0--|
A|--0--0--2--------|--0--0--2--------|--0--0--2--------|--0--0--0--|
E|--------3--0--3--|--------3--0--3--|--------3--0--3--|-----------|

Outro Solo (Backing guitar plays route notes, mutted and chugged)
(A) (G)
E|------------------------|----------------------------|
B|------------------------|----------------------------|
G|--14--16p14--18p14--16--|--12--12--14p12--16p12--14--|
D|------------------------|----------------------------|
A|------------------------|----------------------------|
E|------------------------|----------------------------|

(A) (G)
E|------------------------|-------|
B|------------------------|-------|
G|--14--16p14--18p14--16--|--12v--|
D|------------------------|-------|
A|------------------------|-------|
E|------------------------|-------| X2

Outro Solo Harmony
E|------------------------|----------------------------|
B|--14--15p14--17p14--15--|--12--12--14p12--15p12--14--|
G|------------------------|----------------------------|
D|------------------------|----------------------------|
A|------------------------|----------------------------|
E|------------------------|----------------------------|

E|------------------------|-------|
B|--14--15p14--17p14--15--|--12v--|
G|------------------------|-------|
D|------------------------|-------|
A|------------------------|-------|
E|------------------------|-------| X2

End
E|-------|-----|-----|-----|-----|
B|-------|-----|-----|-----|-----|
G|----2--|--2--|--2--|--2--|--2--|
D|----2--|--2--|--2--|--2--|--2--|
A|----0--|--0--|--0--|--0--|--0--|
E|-------|-----|-----|-----|-----|
Guitar Tab Creator is intended to store guitar tab created through the tool. It currently does not support in-line text editing. Any text you place in here will be lost. If you need to comment on your tab, please use the "Tab Notes" section located below.