Dreamer - OOR

(/) Slide Up  (\) Slide Down  (h) Hammer On  (p) Pull Off  (b) Bend (r) Release (v) Vibrato

E|----------------------------------------------------------------------------------------
B|----------------------------------------------------------------------------------------
G|-13-13-13-13-13-11-13-16-16-16-13-13-13-11-13-13-13-13-13-11-13-16-16-16-11-11-11-11-11-
D|----------------------------------------------------------------------------------------
A|-11-11-11-11-11-9--11-14-14-14-11-11-11-9--11-11-11-11-11-9--11-14-14-14-9--9--9--9--9--
E|----------------------------------------------------------------------------------------



E|-------------------------------------------------------------------------------------------
B|-------------------------------------------------------------------------------------------
G|-------------------------------------------------------------------------------------------
D|--11--11--11--11--11--9--11--11--13--11--11--9--11--11--11--11--11--11--11--11--10--10-----
A|--9---9---9---9---9---7--9---9---11--9---9---7--9---9---9---9---9---9---9---9---8---8------
E|-------------------------------------------------------------------------------------------



E|------------------------------
B|------------------------------
G|------------------------------
D|--10--10--10--10--10--11--12--
A|--8---8---8---8---8---9---10--
E|------------------------------



E|-----
B|-----
G|-----
D|--6--
A|--4--
E|-----



E|------------------------------------
B|------------------------------------
G|--4--4--4--6----4--4--4--6----9--4--
D|--4--4--4--6----4--4--4--6----9--4--
A|--2--2--2--4----2--2--2--4----7--2--
E|------------------------------------
http://www.guitartabcreator.com
Guitar Tab Creator is intended to store guitar tab created through the tool. It currently does not support in-line text editing. Any text you place in here will be lost. If you need to comment on your tab, please use the "Tab Notes" section located below.