Blackbird(Beatles)

(/) Slide Up  (\) Slide Down  (h) Hammer On  (p) Pull Off  (b) Bend (r) Release (v) Vibrato

E|---------------------------------------------------------------------------------
B|--0--1--3--12-----12------12-----12------5--8--7--10--8-----8-----8-----8-----7--
G|---------------0--------------0--------------------------0-----------0-----------
D|---------------------------------------------------------------------------------
A|-----0--2--10---------10--10---------10--3--7--5--9---7--------7--6--------6--5--
E|--3------------------------------------------------------------------------------



E|--------------------------------------------------------------------
B|--8--5-----5-----4-----4-----3-----3-----2-----2-----1-----1-----0--
G|--------0-----------0-----------0-----------0-----------0-----------
D|-----------------------------------------------------0--------0-----
A|--7--3--------3--3--------3--2--------2--0--------0-----------------
E|-----------------------------------------------------------------3--
http://www.guitartabcreator.com
Guitar Tab Creator is intended to store guitar tab created through the tool. It currently does not support in-line text editing. Any text you place in here will be lost. If you need to comment on your tab, please use the "Tab Notes" section located below.