Damon Marks - Whitesnake - "Is This Love" Guitar Solo Tab

(/) Slide Up  (\) Slide Down  (h) Hammer On  (p) Pull Off  (b) Bend (r) Release (v) Vibrato


E|------------------------------------------------------------------------------------14--12------
B|------------------------------------------------------12--17b17------15b15--12--15----------15--
G|--14p12--14b12--11b11---------------------11--12--14-------------14-----------------------------
D|--------------------------------------12--------------------------------------------------------
A|------------------------------10--14------------------------------------------------------------
E|-----------------------12/12--------------------------------------------------------------------



E|----------------------------12------14--15--15b14--15------12------14------15--17b15p17b17------
B|------------------------12------12---------------------12------12------12-----------------------
G|--14b12p14------12--------------------------------------------------------------------------19--
D|------------14------14--------------------------------------------------------------------------
A|------------------------------------------------------------------------------------------------
E|------------------------------------------------------------------------------------------------



E|--20b19b19---------------------------------------20--19--17----------------------------
B|------------20------17--19b19--17------------17--------------20b17---------------------
G|----------------19-----------------19b19b19-------------------------19--17-------------
D|----------------------------------------------------------------------------19--17\17--
A|---------------------------------------------------------------------------------------
E|---------------------------------------------------------------------------------------

Stave 1:

E|--15--14--12------12--
B|--------------15------
G|----------------------
D|----------------------
A|----------------------
E|----------------------

http://www.guitartabcreator.com
Guitar Tab Creator is intended to store guitar tab created through the tool. It currently does not support in-line text editing. Any text you place in here will be lost. If you need to comment on your tab, please use the "Tab Notes" section located below.