Damon Marks - Toto - Rosanna - Guitar Lesson - Main Guitar Solo

(/) Slide Up  (\) Slide Down  (h) Hammer On  (p) Pull Off  (b) Bend (r) Release (v) Vibrato


E|---------------------------------------------6--------------------------------------------------
B|-------------------------6--6-----8--8--8b8-----8b8p6--8--6--------------------------9--10--13--
G|----------------------7--------7---------------------------------------------10--12-------------
D|--3--3--3--3--3--5/7-------------------------------------------------10--12---------------------
A|-------------------------------------------------------------11--12-----------------------------
E|------------------------------------------------------------------------------------------------



E|-------------9--10--13--9--10--13--13b13--13b13-------------------------18---------
B|--9--10--13--------------------------------------18--20--18--20--20b20------18b18--
G|-----------------------------------------------------------------------------------
D|-----------------------------------------------------------------------------------
A|-----------------------------------------------------------------------------------
E|-----------------------------------------------------------------------------------
http://www.guitartabcreator.com
Guitar Tab Creator is intended to store guitar tab created through the tool. It currently does not support in-line text editing. Any text you place in here will be lost. If you need to comment on your tab, please use the "Tab Notes" section located below.