Requiem for the lost (movement 3)

(/) Slide Up  (\) Slide Down  (h) Hammer On  (p) Pull Off  (b) Bend (r) Release (v) Vibrato

E|--------------------------------------------------
B|--------------------------------------------------
G|--------------------------------------------------
D|--------7-----------7-----------7-----------7-----
A|-----8-----8-----8-----8-----8-----8-----8-----8--
E|--8-----------8-----------8-----------8-----------



E|--------------------------------------------------
B|--------------------------------------------------
G|--------------------------------------------------
D|--------7-----------7-----------7-----------7-----
A|-----8-----8-----8-----8-----8-----8-----8-----8--
E|--0-----------0-----------0-----------0-----------



E|-----------------------------------------------------
B|-----------------------------------------------------
G|-----------------------------------------------------
D|--------5-----------5-----------5-----------5--------
A|-----3-----3-----3-----3-----5-----5-----5-----5-----
E|--3-----------3-----------5-----------5--------------
http://www.guitartabcreator.com
Guitar Tab Creator is intended to store guitar tab created through the tool. It currently does not support in-line text editing. Any text you place in here will be lost. If you need to comment on your tab, please use the "Tab Notes" section located below.