Awakening of the hounds (guitar one) (prototype)

(/) Slide Up  (\) Slide Down  (h) Hammer On  (p) Pull Off  (b) Bend (r) Release (v) Vibrato
E|-----------------------------------------
B|-----7-8v------7-8-9v------7-8v------7-8/
G|---6---------6-----------6---------6-----
D|-7---------7-----------7---------7-------
A|-----------------------------------------
E|-----------------------------------------



E|--------------------------------------------------------------
B|--------------------------------------------------------------
G|--------------------------------------------------------------
D|--------------------------------------------------------------
A|-------------7-------------7-------------7v-------------7-8-9\
E|-0-0-0-0-0-0---0-0-0-0-0-0---0-0-0-0-0-0----0-0-0-0-0-0-------



E|----------------------------------------------------------------
B|----------------------------------------------------------------
G|----------------------------------------------------------------
D|----------------------------------------------------------------
A|-------------7-------------7-------------7v-------------7-8-9v-\
E|-0-0-0-0-0-0---0-0-0-0-0-0---0-0-0-0-0-0----0-0-0-0-0-0---------



E|------------------------------------------------------------------
B|------------------------------------------------------------------
G|------------------------------------------------------------------
D|------------------------------------------------------------------
A|-------------7v-------------7v-------------7v-------------7-8-9\--
E|-0-0-0-0-0-0----0-0-0-0-0-0----0-0-0-0-0-0----0-0-0-0-0-0---------



E|--------------------------------------------------------------------
B|--------------------------------------------------------------------
G|----------------------------x-------------x-------------------------
D|----------------------------7-------------7-------------------------
A|-------------7v-------------7-------------7-------------7-8-9-10v-v-
E|-0-0-0-0-0-0----0-0-0-0-0-0-0-0-0-0-0-0-0-0-0-0-0-0-0-0-------------



E|-------x--------------------------------------------------------------
B|-------x--------------------------------------------------------------
G|-------x--------------------------------------------------------------
D|-------x----------------x-x-------------------------------------------
A|-------x-----7/16-------0-x---7/16-------------7/16-------------0-----
E|-0-0-0-x-0-0------0-0-0-x-x-0------0-0-0-0-0-0------0-0-0-0-0-0---0-0-



E|------------------------------------------------------------------------
B|------------------------------------------------------------------------
G|------------------------------------------------------------------------
D|--------------------------x-x--------x-x-x---x------x-x-x-x-x-x---------
A|-------0-0-0-7/16-0-0-0-0-0-0-7/16---0-0-x-0-x-7/16-x-0-x-x-x-0-7-------
E|-0-0-0-0-0-0------0-0-0-0-0-0------0-0-0-x-0-0------0-0-0-x-0-0---8-8h9-



E|-------------------------------------------------------------------------------------------
B|-------------------------------------------------------------------------------------------
G|-------------------------------------------------------------------------------------------
D|--x--x--x--x--x--x--7--16--------------------7/16--7/16--7/16--12/18--15/20--18/20--19/21--
A|--0--0--0--0--x--x--0----------------------------------------------------------------------
E|--0--0--0--0--0--0---------0--0--0--0--0--0------------------------------------------------
http://www.guitartabcreator.com
Guitar Tab Creator is intended to store guitar tab created through the tool. It currently does not support in-line text editing. Any text you place in here will be lost. If you need to comment on your tab, please use the "Tab Notes" section located below.