EOA 1

(/) Slide Up  (\) Slide Down  (h) Hammer On  (p) Pull Off  (b) Bend (r) Release (v) Vibrato


E|------------------------------------|------------------------2--|--
B|------------------------------------|------------------------3--|--
G|------------------------------------|-------------------3p1--2--|--
D|--------------7p5--------------5p3--|--------------3p1----------|--
A|-----7-----7----------5-----5-------|-----3-----3---------------|--
E|--5-----5----------3-----3----------|--1-----1------------------|--



E|------------------------2--|--
B|------------------------3--|--
G|-------------------3p1--2--|--
D|--------------3p1----------|--
A|-----3-----3---------------|--
E|--1-----1------------------|--



E|--2--2-2--2--2-2--2--2-2-------------------------------------------------
B|--3--3-3--3--3-3--3--3-3-1--1-1--1--1-1--1--1-1--------------------------
G|--2--2-2--2--2-2--2--2-2-0--0-0--0--0-0--0--0-0--------------------------
D|-------------------------2--2-2--2--2-2--2--2-2-2--2-2--2--2-2--2--2-2---
A|-------------------------3--3-3--3--3-3--3--3-3-3--3-3--3--3-3--3--3-3---
E|-------------------------------------------------------------------------



E|----------------------------------------------------------------------
B|----------------------------------------------------------------------
G|----------------------------------------------------------------------
D|------------------------2--2-2--2--2-2--2--2-2------------------------
A|-2--2-2--2--2-2--2--2-2-2--2-2--2--2-2--2--2-2-2--2-2--2--2-2--2--2-2-
E|-3--3-3--3--3-3--3--3-3------------------------3--3-3--3--3-3--3--3-3-



E|-----------------------------------------------
B|------------------------1--1-1--1--1-1--1--1-1-
G|------------------------0--0-0--0--0-0--0--0-0-
D|-2--2-2--2--2-2--2--2-2-2--2-2--2--2-2--2--2-2-
A|-3--3-3--3--3-3--3--3-3-3--3-3--3--3-3--3--3-3-
E|-----------------------------------------------



E|--------------------------
B|--------------------------
G|-----------------7--5-----
D|--7--7--7--7--7-----------
A|--5--5--5--5--5-----------
E|--------------------------
http://www.guitartabcreator.com
Guitar Tab Creator is intended to store guitar tab created through the tool. It currently does not support in-line text editing. Any text you place in here will be lost. If you need to comment on your tab, please use the "Tab Notes" section located below.