Training Wheels

(/) Slide Up  (\) Slide Down  (h) Hammer On  (p) Pull Off  (b) Bend (r) Release (v) Vibrato

Time Sig 3/4
Capo 4

E|3--3--3--3--3--3--3- -3- -|
B|-0--0--0--0--0--0--1p0-- -|
G|--0--0--0--0--0--0-- --2p0| (x4)
D|-------------------- --- -|
A|-------------------- --- -|
E|-------------------- --- -|

E|--------------------- - --------------------------|
B|-0--0--0--0---------- - ---0--0-------------------|
G|--0--0--0--0-0--0--0-0h2----0--0-0--0--0-----0----|
D|2--2--0--0----0--0--2 - 0-2--2----0--0--0-0---0-0-|
A|------------2--2--3-- - -3------2--2-------0-----0|
E|--------------------- - --------------3--3--3--3--|

http://www.guitartabcreator.com
Guitar Tab Creator is intended to store guitar tab created through the tool. It currently does not support in-line text editing. Any text you place in here will be lost. If you need to comment on your tab, please use the "Tab Notes" section located below.