Morning Bloom

Artist: Dalton Tate                    Key: (/) Slide Up  (-)( - ) Beat
Song: Morning Bloom
Date: March 1, 2012
Time Sig: /
BPM:

C|------------------------------- - ----------------------- - --------|
G|------------------------------- - ----------------------- - --------|
F|------------------------------- - -----------------------4/6---7----|
C|-------------------------------2/4---------------4------- - -------4|
G|-0-0-0-0-0-0-0-0-0-0-0-0-0-0-0- - -0-0-0-0-0-0-0---0-0-0- - -0---0--|
C|0-0-0-0-0-0-0-0-0-0-0-0-0-0-0-0 - 0-0-0-0-0-0-0-0-0-0-0-0 - 0-0-0-0-|

C|----------------------- - ------------------------------- - --------|
G|----------------------- - ------------------------------- - --------|
F|-----------------------4/6---7---------------------------4/6---7---4|
C|---------------2------- - -------4---------------2------- - --------|
G|-0-0-0-0-0-0-0---0-0-0- - -0---0---0-0-0-0-0-0-0---0-0-0- - -0---0--|
C|0-0-0-0-0-0-0-0-0-0-0-0 - 0-0-0-0-0-0-0-0-0-0-0-0-0-0-0-0 - 0-0-0-0-|

C|--------------------------------------------------------------|
G|-----------0---------------0---------------0-----------0---0--|
F|---4---4-------4---4---4-------4---4---4-------4---4----------|
C|-0---0---0---0---0---0---0---0---0---0---0---0---0---0---0---0|
G|--------------------------------------------------------------|
C|5-5-5-5-5-5-5-5-5-5-5-5-5-5-5-5-5-5-5-5-5-5-5-5-5-5-5-5-5-5-5-|

C|--------------- - ------- - ----
G|--------------- - ------- - ----
F|--------------- - -------4/6---7
C|---------------2/4------- - ----
G|-0-0-0-0-0-0-0- - -0-0-0- - -0--
C|0-0-0-0-0-0-0-0 - 0-0-0-0 - 0-0-

Guitar Tab Creator is intended to store guitar tab created through the tool. It currently does not support in-line text editing. Any text you place in here will be lost. If you need to comment on your tab, please use the "Tab Notes" section located below.