Ana

Capo:5  Tempo:  Time Sig: 4/4

e|-----2------2--------2------2--------2-----2--------2------2---|
B|---3---3---3-3-3---3---3---3-3-3---3---3--3-3-3---3---3---3-3-3|
G|--0-0-0-0-0---0---0-0-0-0-0---0---0-0-0--0---0---0-0-0-0-0---0-|
D|0--------0------0--------0------0-------0------0--------0------|
G|---------------------------------------------------------------|
D|---------------------------------------------------------------|

e|-----2------2--------2------2--------2-----2--------2------2---|
B|---3---3---3-3-3---3---3---3-3-3---3---3--3-3-3---3---3---3-3-3|
G|--0-0-0-0-0---0---0-0-0-0-0---0---0-0-0--0---0---0-0-0-0-0---0-|
D|---------0---------------0--------------0---------------0------|
G|0---------------0---------------0--------------0---------------|
D|---------------------------------------------------------------|

e|-----2------2--------2------2--------2-----2--------2------2---|
B|-3-3---3---3-3-3-3-3---3---3-3-3-3-3---3--3-3-3-3-3---3---3-3-3|
G|--0-0-0-0-0---0---0-0-0-0-0---0---0-0-0--0---0---0-0-0-0-0---0-|
D|---------0---------------0--------------0---------------0------|
G|0---------------0---------------0--------------0---------------|
D|---------------------------------------------------------------|





Guitar Tab Creator is intended to store guitar tab created through the tool. It currently does not support in-line text editing. Any text you place in here will be lost. If you need to comment on your tab, please use the "Tab Notes" section located below.