Stairway to heaven

(/) Slide Up  (\) Slide Down  (h) Hammer On  (p) Pull Off  (b) Bend (r) Release (v) Vibrato


E|-----------5--7--------7--8--------8--2--------2--0-------------0-----------------
B|--------5--------5-----------5-----------3-----------1-----1-------1--------------
G|-----5--------------5-----------5-----------2-----------2-------------2--0--2--2--
D|--7-----------6-----------5-----------0-----------3----------------------0--2--2--
A|-------------------------------------------------------------------------2--0--0--
E|----------------------------------------------------------------------------------



E|----------------
B|----------------
G|----------------
D|----------------
A|------0/8--7----
E|----------------



E|-----------------0--2--------2--0----------------------------------0--3--------3--
B|--------------1--------3-----------1-----1--0h1-----------------1--------0--------
G|-----------0--------------2-----------2----------2-----------0--------------0-----
D|--------------------0-----------3-------------------------------------------------
A|--0--2--3-----------------------------------0-------0--2--3-----------------------
E|----------------------------------------------------------------------3-----------



E|--3p2--2----2---------------------0--2--------2--0----------------------------------0--
B|--3----3----3------------------1--------3-----------1-----1--0h1-----------------1-----
G|--2----2----2---------------0--------------2-----------2----------2-----------0--------
D|--0----0----0------------------------0-----------3-------------------------------------
A|-------------------0--2--3-----------------------------------0-------0--2--3-----------
E|---------------------------------------------------------------------------------------



E|-----------2--0--0--0---------------5--7-----------7--------------------8-----------------------
B|--------3-----1--1--1------------5--------5-----5-----5-----5--------5-----5--------------------
G|-----2--------2--2--2---------5--------------5-----------5--------5-----------5-----5-----2-----
D|--0-----------3--3--3------7-----------6-----------------------5-----------------5-----0--------
A|------------------------------------------------------------------------------------------------
E|------------------------------------------------------------------------------------------------



E|-----2-----------------------0---------------------0-----------------------
B|--3-----3-----------------1-------1-------------1-----1--------------------
G|-----------2-----2-----2-------------2-------2-----------2-----2--0--2--2--
D|--------------0-----3---------------------3-----------------3-----0--2--2--
A|------------------------------------------------------------------2--0--0--
E|---------------------------------------------------------------------------
http://www.guitartabcreator.com
Guitar Tab Creator is intended to store guitar tab created through the tool. It currently does not support in-line text editing. Any text you place in here will be lost. If you need to comment on your tab, please use the "Tab Notes" section located below.